Guitar Tabs for Ajagun Segun - Emperor Pick Peters

(/) Slide Up  (\) Slide Down  (h) Hammer On  (p) Pull Off  (b) Bend (r) Release (v) Vibrato (x) Muted

Tabs & Chords
BPM : 93.0
Check Track 2 for Chord Positions 

                   C#       F              C#       G#             Fm             C#          
E|--------6-----------------------------------------------------8--13-13-13-16-15-13-15-13-13-
B|--6--9-----------6--------6-----------------------------9-----------------------------------
G|-----------6-----------6--------------------6--------8--------------------------------------
D|--------------------7-----------10-6--8-----------10----------------------------------------
A|-----------------------------6-----------8--------------------------------------------------
E|--------------------------------------------------------------------------------------------

                            F                                            C#                C# 
E|--13-8-----------------------------------6-----------------17----17----------------------17-
B|-----------------0--------------------------------------6--------------------------0--------
G|--------------------6-----6--------------------------8--------------------------------------
D|--------8-----8--------------8--------------6-----7-----------------------7-----7-----------
A|-----------------------------------------------------------------------6--------------------
E|--------------------------------------9-----------------------------------------------------

                               A#m            C#             F                          
E|--17-------------------------------------0--------------------------------------6-----
B|-----------6--6-----7--------6--------6-----------------------------------9-----------
G|--------6-----------------------------------------------------------------------------
D|--------------------------------8--8--------6-----7-----7--7-----------------------7--
A|-----------------------------------------------6-----6--------8-----6-----------------
E|--------------------------8-----------------------------------------------------------

Guitar Tabs for Ajagun Segun - Emperor Pick Peters






                   C#       F              C#       G#             Fm             C#          
E|-----------------4--------1--------------4--------4--------------1--------------4-----------
B|-----------------6--------1--------------6--------4--------------1--------------6-----------
G|-----------------6--------2--------------6--------5--------------1--------------6-----------
D|-----------------6--------3--------------6--------6--------------3--------------6-----------
A|-----------------4--------3--------------4--------6--------------3--------------4-----------
E|--------------------------1-----------------------4--------------1--------------------------

                            F                                            C#                C# 
E|--------------------------1--------------------------------------------4-----------------4--
B|--------------------------1--------------------------------------------6-----------------6--
G|--------------------------2--------------------------------------------6-----------------6--
D|--------------------------3--------------------------------------------6-----------------6--
A|--------------------------3--------------------------------------------4-----------------4--
E|--------------------------1-----------------------------------------------------------------

                               A#m            C#             F                          
E|-----------------------------1--------------4--------------1--------------------------
B|-----------------------------2--------------6--------------1--------------------------
G|-----------------------------3--------------6--------------2--------------------------
D|-----------------------------3--------------6--------------3--------------------------
A|-----------------------------1--------------4--------------3--------------------------
E|-----------------------------------------------------------1--------------------------

tabs and chords, guitar tabs, music transcription, music technology, deep learning, music information retrieval, transcribe into tabs & chords, chordify, music renditions, songsterr, reverbnation, tabulature, bollywood chords, ultimate guitar, yousician, guitar lessons, acoustic guitar, electric guitar, guitar tuner, 911 tabs