Guitar Tabs for Aint No Sunshine - Bill Withers Tabs

(/) Slide Up  (\) Slide Down  (h) Hammer On  (p) Pull Off  (b) Bend (r) Release (v) Vibrato

Aint no sunshine - Bill Withers Tabs

Aint no sunshine when shes gone
E|--------------------------
B|--------------------------
G|--------------------------
D|--------0--3--2--0--0-----
A|--0--3--------------------
E|--------------------------

It's not warm when she's away
E|-----------------------------
B|-----------------------------
G|-----------------------------
D|--------0--3--2--------0-----
A|--0--3-----------3--3--------
E|-----------------------------

Aint no sunshine when shes gone
E|--------------------------------
B|--------------------------------
G|-----------2-----0--0--2--------
D|--0--0--3-----------------5-----
A|--------------------------------
E|--------------------------------

And shes always gone too long , anytime she goes away
E|--------------------------------------------------------------
B|--------------------------------------------------------------
G|--------------------------------------------------------------
D|--0--0--3--0-----0--------0-----3--5--3-----0-----------------
A|--------------3-----0--3-----------------------3--5--3--5-----
E|--------------------------------------------------------------

Repeat the same with next stanza

And I know I know I know I know...... I know
E|-----------------------------------------------
B|-----------------------------------------------
G|-----------------------------------------------
D|-----------------------------------------------
A|--3--5-----3--5-----3--5-----3--5-----3--5-----
E|-----------------------------------------------

Hey I ought to leave the young thing alone
E|--------------------------
B|--------------------------
G|--2--2--5--2--------------
D|--------------5--3--5-----
A|--------------------------
E|--------------------------

But ain't no sunshine when she's gone
E|--------------------------------
B|--------------------------------
G|-----2--0-----------------------
D|--0--------3--3-----------------
A|-----------------3--5-----3--5--
E|-----------------------5--------
tabs and chords, guitar tabs, music contests, music covers, songsterr, reverbnation, renditions, tabulature, bollywood chords, ultimate guitar, yousician, guitar lessons, torrins, fender, gibson, acoustic guitar, electric guitar, youtube covers, gootar, guitar tuner, A-Z tabs, 911 tabs