Ain't No Sunshine :)) - Easy Fingerstyle Song For Beginners - Guitar Tabs

(/) Slide Up  (\) Slide Down  (h) Hammer On  (p) Pull Off  (b) Bend (r) Release (v) Vibrato (x) Muted

Tabs for Song : 
BPM : 300

Song lyrics here 
E|--------------------------------------------------------------------
B|--------1-----------1-----------0-----------0-----------1-----------
G|--------2-----------2-----------0-----------0-----------2-----------
D|--------2-----------2-----------2-----------0-----------2-----------
A|--0-----------0-----------------------------------0-----------------
E|--------------------------0-----------3-----------------------------

Song lyrics here 
E|--------------------------------------------------------1-----------1-----------1-----------1--
B|--------0-----------0-----------0-----------0-----------3-----------3-----------3-----------3--
G|--------0-----------0-----------0-----------0-----------2-----------2-----------2-----------2--
D|--------2-----------2-----------2-----------2-----0-----------0-----------0-----------0--------
A|-----------------------------------------------------------------------------------------------
E|--0-----------0-----------0-----------0--------------------------------------------------------

Use manual mode to free up cursor. Paste any tab in acousterr tab maker and we'll play it !!!

About Ain't No Sunshine : The song was recorded in Memphis by engineer Terry Manning . The record featured musicians Donald "Duck" Dunn on bass guitar, Al Jackson Jr. on drums and Stephen Stills on guitar . The song was released as a single in 1971 . Billboard ranked it as the No. 23 song for 1971 . The song also appears on the original soundtrack album for the films When We Were Kings and Notting Hill . The song reached the Top 40 again in 2009 when it was sung by Kris Allen in the eighth season It was released in 1971. It was released as part of album Just As I Am. The genre is r&b soul blues. The track was release in 1971. Ain't No Sunshine has a significant contribution from artist(s) Bill Withers,Donald "Duck" Dunn,Al Jackson Jr.,Stephen Stills,Booker T. Jones,Terry Manning. It is related to the album(s) - Just As I Am.

About Bill Withers - William Harrison Withers Jr. recorded several major hits, including "Ain't No Sunshine" (1971), "Use Me" (1972), "Lean on Me" and "Lovely Day" (1977) Wither's life was the subject of the 2009 documentary film Still Bill . Withers was born with a stutter and said he had a hard time fitting in . He was raised by his mother's family in Beckley, West Virginia . His parents divorced when he was 3 . Withers debuted with the song "Ain't No Sunshine" in 1971 . He refused to resign from his job because he believed the music business was a fickle industry . Bill Withers's most popular songs include - Ain't No Sunshine,Grandma's Hands,Use Me,Lean on Me,Lovely Day,Just the Two of Us. Bill Withers's music is influenced by genre(s) - soul r&b smooth soul blues funk.

About Just as I Am (Bill Withers album) : Just As I Am is the debut studio album of American soul musician Bill Withers . The album features the hit single "Ain't No Sunshine", which was ranked at number 280 on Rolling Stone's list of the 500 Greatest Songs of All Time . Reviewing in Christgau's Record Guide: Rock Albums of the Seventies (1981), Robert Christgau wrote: As befits a strummer of acoustic guitars, Withers is more folk than pop . When he adds folk seriousness to gospel fervor, he makes titles like 'I'm Her Daddy' and 'Better Off Dead' Just as I Am (Bill Withers album)'s most popular songs include Ain't No Sunshine,Grandma's Hands. It had a contribution from notable artists like Bill Withers. Its music is influenced by genres - soul , folk.

tabs and chords, guitar tabs, music transcription, music technology, deep learning, music information retrieval, transcribe into tabs & chords, chordify, music renditions, songsterr, reverbnation, tabulature, bollywood chords, ultimate guitar, yousician, guitar lessons, acoustic guitar, electric guitar, guitar tuner, 911 tabs