Guitar Tabs for Ahuja Bello In London

(/) Slide Up  (\) Slide Down  (h) Hammer On  (p) Pull Off  (b) Bend (r) Release (v) Vibrato (x) Muted

Tabs & Chords
BPM : 117.0
Check Track 2 for Chord Positions 

                                                                         Am             G     
E|-----7--7-----------7--10-7--7--10-7--8--7--------11-10-7--------8--8-----0--------8-----7--
B|--10----------------------------------------10-10----------8--8--------------10-10----8-----
G|--------------------------------------------------------------------------------------------
D|--------------------------------------------------------------------------------------------
A|--------------------------------------------------------------------------------------------
E|--------------8--------------------------------------------------------2--------------------

                                     D                          Am                   G           
E|--------------------------0--------------------------------7-----0-----------8--8--------------
B|-----8--8--8--8-----------------------------8-----------7-----------10-10-10-------8-----------
G|--------------------------------------7--7--------10----------------------------------------0--
D|-----------------10-10-10-------7--7-----------------------------------------------------------
A|--------------------------------------------------------------0--------------------------------
E|--------------------------------------------------------------------------------------3--------

                            G           Am             G           Am          G              
E|-----------------0--0-----------------0--------------------------7--0-----8-----7-----------
B|--------------------------------------------10-------------------------10----10-------------
G|--0--0--------------------------------------------------------------------------------------
D|-----------10-10-------------------------------10----------------------------------------10-
A|--------------------------------------------------------------------------------------------
E|--------------------------3-----7--------------------3-----7-----------------------3--------

                                        D                                   G                 
E|--------------0--0--------------------------------------------0--0--0-----------------------
B|--------0--------------------------------------------0--0-----------------------------------
G|--------------------7--7--8--7--7-----------7--7-----------------------7--7--8--7-----------
D|--10----------------------------------10----------10-------10-------------------------10-10-
A|--------------------------------------------------------------------------------------------
E|--------------------------------------------------------------------------------------------

             
E|-----0-----
B|--------0--
G|-----------
D|--10-------
A|-----------
E|-----------

Guitar Tabs for Ahuja Bello In London






                                                                         Am             G     
E|-----------------------------------------------------------------------0--------------3-----
B|-----------------------------------------------------------------------1--------------3-----
G|-----------------------------------------------------------------------2--------------4-----
D|-----------------------------------------------------------------------2--------------5-----
A|-----------------------------------------------------------------------0--------------5-----
E|--------------------------------------------------------------------------------------3-----

                                     D                          Am                   G           
E|-----------------------------------2--------------------------0--------------------3-----------
B|-----------------------------------3--------------------------1--------------------3-----------
G|-----------------------------------2--------------------------2--------------------4-----------
D|-----------------------------------0--------------------------2--------------------5-----------
A|--------------------------------------------------------------0--------------------5-----------
E|-----------------------------------------------------------------------------------3-----------

                            G           Am             G           Am          G              
E|--------------------------3-----------0--------------3-----------0-----------3--------------
B|--------------------------3-----------1--------------3-----------1-----------3--------------
G|--------------------------4-----------2--------------4-----------2-----------4--------------
D|--------------------------5-----------2--------------5-----------2-----------5--------------
A|--------------------------5-----------0--------------5-----------0-----------5--------------
E|--------------------------3--------------------------3-----------------------3--------------

                                        D                                   G                 
E|--------------------------------------2-----------------------------------3-----------------
B|--------------------------------------3-----------------------------------3-----------------
G|--------------------------------------2-----------------------------------4-----------------
D|--------------------------------------0-----------------------------------5-----------------
A|--------------------------------------------------------------------------5-----------------
E|--------------------------------------------------------------------------3-----------------

             
E|-----------
B|-----------
G|-----------
D|-----------
A|-----------
E|-----------

tabs and chords, guitar tabs, music transcription, music technology, deep learning, music information retrieval, transcribe into tabs & chords, chordify, music renditions, songsterr, reverbnation, tabulature, bollywood chords, ultimate guitar, yousician, guitar lessons, acoustic guitar, electric guitar, guitar tuner, 911 tabs