Agents Of Brutality - Kreator - Guitar Tabs

Millie
    
                                                                                                                                                                                                                                                                                                                                                                                                                                                                                                                                                                                                 
E|-------------------------|
B|-------------------------|
G|-------------------------|
D|--2----------------------|
A|--2----------------------|
E|--0----------------------|

    
                                                                                                                                                                                                                                                                                                                                                                                                                                                                                                                                                                                                                                                                                                                                                                                                                                                                                                                                                                                                                                                                                                                                                                                              
E|-------------------------|-----------------------|
B|-------------------------|-----------------------|
G|-------------------------|-----------------------|
D|--2----------------------|-----------------------|
A|--2----------------------|4--------4--5--4--5--7-|
E|--0-----7--6--------(6)--|2----------------------|

    
                                                                                                                                                                                                                                                                                                                                                                                                                                                                                                                                                                                                                                                                                                                                                                                                                                                                                                                                                                                                                                                                                                                                                                                              
E|-------------------------|-----------------------|
B|-------------------------|-----------------------|
G|-------------------------|-----------------------|
D|--2----------------------|-----------------------|
A|--2----------------------|4--------4--5--4--5--7-|
E|--0-----7--6--------(6)--|2----------------------|

    
                                                                                                                                                                                                                                                                                                                                                                                                                                                                                                                                                                                                                                                                                                                                                                                                                                                                                                                                                                                                                                                                                                                                                                                              
E|-------------------------|-----------------------|
B|-------------------------|-----------------------|
G|-------------------------|-----------------------|
D|--2----------------------|-----------------------|
A|--2----------------------|4--------4--5--4--5--7-|
E|--0-----7--6--------(6)--|2----------------------|

    
                                                                                                                                                                                                                                                                                                                                                                                                                                                                                                                                                                                                                                                                                                                                                                                                                                                                                                                                                                                                                                                                                                                                                                                              
E|-------------------------|-----------------------|
B|-------------------------|-----------------------|
G|-------------------------|-----------------------|
D|-------------------------|------------2----------|
A|--9-----------8----------|4-----------3-----3--3-|
E|--6-----6--6--6-----6--6-|4-----4--4-------------|

    
                                                                                                                                                                                                                                                                                                                                                                                                                                                                                                                                                                                                                                                                                                                                                                                                                                                                                                                                                                                                                                                                                                                                                                                              
E|-------------------------|-----------------------|
B|-------------------------|-----------------------|
G|-------------------------|-----------------------|
D|--2----------------------|-----------------------|
A|--2----------------------|4--------4--5--4--5--7-|
E|--0-----7--6--------(6)--|2----------------------|

    
                                                                                                                                                                                                                                                                                                                                                                                                                                                                                                                                                                                                                                                                                                                                                                                                                                                                                                                                                                                                                                                                                                                                                                                              
E|-------------------------|-----------------------|
B|-------------------------|-----------------------|
G|-------------------------|-----------------------|
D|--2----------------------|-----------------------|
A|--2----------------------|4--------4--5--4--5--7-|
E|--0-----7--6--------(6)--|2----------------------|

    
                                                                                                                                                                                                                                                                                                                                                                                                                                                                                                                                                                                                                                                                                                                                                                                                                                                                                                                                                                                                                                                                                                                                                                                              
E|-------------------------|-----------------------|
B|-------------------------|-----------------------|
G|-------------------------|-----------------------|
D|--2----------------------|-----------------------|
A|--2----------------------|4--------4--5--4--5--7-|
E|--0-----7--6--------(6)--|2----------------------|

    
                                                                                                                                                                                                                                                                                                                                                                                                                                                                                                                                                                                                                                                                                                                                                                                                                                                                                                                                                                                                                                                                                                                                                                                              
E|-------------------------|-----------------------|
B|-------------------------|-----------------------|
G|-------------------------|-----------------------|
D|-------------------------|------------2----------|
A|--9-----------8----------|4-----------3-----3--3-|
E|--6-----6--6--6-----6--6-|4-----4--4-------------|

    
                                                                                                                                                                                                                                                                                                                                                                                                                                                                                                                                                                                                                                                                                                                                                                                                                                                                                                                                                                                                                                                                                                                                                                                              
E|-------------------------|-----------------------|
B|-------------------------|-----------------------|
G|-------------------------|-----------------------|
D|--2----------------------|-----------------------|
A|--2-----9--8-------------|4--------4--5--4--5--7-|
E|--0-----7--6--------6--6-|2----------------------|

    
                                                                                                                                                                                                                                                                                                                                                                                                                                                                                                                                                                                                                                                                                                                                                                                                                                                                                                                                                                                                                                                                                                                                                                                              
E|-------------------------|-----------------------|
B|-------------------------|-----------------------|
G|-------------------------|-----------------------|
D|--2----------------------|-----------------------|
A|--2-----6--7-------------|4--------4--5--4--5--7-|
E|--0-----4--5--------5--5-|2----------------------|

    
                                                                                                                                                                                                                                                                                                                                                                                                                                                                                                                                                                                                                                                                                                                                                                                                                                                                                                                                                                                                                                                                                                                                                                                              
E|-------------------------|-----------------------|
B|-------------------------|-----------------------|
G|-------------------------|-----------------------|
D|--2----------------------|------------4----------|
A|--2-----9--8-------------|4--------------7--5--4-|
E|--0-----7--6--------6--6-|2--------2-------------|

    
                                                                                                                                                                                                                                                                                                                                                                                                                                                                                                                                                                                                                                                                                                                                                                                                                                                                                                                                                                                                                                                                                                                                                                                              
E|-------------------------|-----------------------|
B|-------------------------|-----------------------|
G|-------------------------|-----------------------|
D|-------------------------|------------2----------|
A|--9-----------8----------|4-----------3----------|
E|--6-----6--6--6-----6--6-|4-----4--4-------------|

    
                                                                                                                                                                                                                                                                                                                                                                                                                                                                                                                                                                                                 
E|-------------------------|
B|-------------------------|
G|-------------------------|
D|--------------3--2--0--2-|
A|--5--3--2--0-------------|
E|-------------------------|

    
                                                                                                                                                                                                                                                                                                                                                                                                                                                                                                                                                                                                                                                                                                                                                                                                                                                                                                                                                                                                                                                                                                                                                                                              
E|-------------------------------------------|-----------------------------------|
B|-------------------------------------------|-----------------------------------|
G|-------------------------------------------|-----------------------------------|
D|-------------------------------------------|5-----4-----2-----------3----------|
A|--2--------------------2-------------------|3-----2-----0-----4-----1-----3----|
E|--0--0--0--0--0--0--0--0--0--0--0--0--0--0-|------------------2-----------1----|

    
                                                                                                                                                                                                                                                                                                                                                                                                                                                                                                                                                                                                                                                                                                                                                                                                                                                                                                                                                                                                                                                                                                                                                                                              
E|-------------------------------------------|-----------------------|
B|-------------------------------------------|-----------------------|
G|-------------------------------------------|-----------------------|
D|-------------------------------------------|------------3--2--0--2-|
A|--2--------------------2-------------------|5--3--2--0-------------|
E|--0--0--0--0--0--0--0--0--0--0--0--0--0--0-|-----------------------|

    
                                                                                                                                                                                                                                                                                                                                                                                                                                                                                                                                                                                                                                                                                                                                                                                                                                                                                                                                                                                                                                                                                                                                                                                              
E|-------------------------------------------|-----------------------------------|
B|-------------------------------------------|-----------------------------------|
G|-------------------------------------------|-----------------------------------|
D|-------------------------------------------|5-----4-----2-----------3----------|
A|--2--------------------2-------------------|3-----2-----0-----4-----1-----3----|
E|--0--0--0--0--0--0--0--0--0--0--0--0--0--0-|------------------2-----------1----|

    
                                                                                                                                                                                                                                                                                                                                                                                                                                                                                                                                                                                                                                                                                                                                                                                                                                                                                                                                                                                                                                                                                                                                                                                              
E|-------------------------------------------|-----------------------|
B|-------------------------------------------|-----------------------|
G|-------------------------------------------|-----------------------|
D|-------------------------------------------|------------3--2--0--2-|
A|--2--------------------2-------------------|5--3--2--0-------------|
E|--0--0--0--0--0--0--0--0--0--0--0--0--0--0-|-----------------------|

    
                                                                                                                                                                                                                                                                                                                                                                                                                                                                                                                                                                                                                                                                                                                                                                                                                                                                                                                                                                                                                                                                                                                                                                                              
E|-------------------------------------------|-----------------------------------|
B|-------------------------------------------|-----------------------------------|
G|-------------------------------------------|-----------------------------------|
D|-------------------------------------------|5-----4-----2-----------3----------|
A|--2--------------------2-------------------|3-----2-----0-----4-----1-----3----|
E|--0--0--0--0--0--0--0--0--0--0--0--0--0--0-|------------------2-----------1----|

    
                                                                                                                                                                                                                                                                                                                                                                                                                                                                                                                                                                                                                                                                                                                                                                                                                                                                                                                                                                                                                                                                                                                                                                                              
E|-------------------------------------------|-----------------------|
B|-------------------------------------------|-----------------------|
G|-------------------------------------------|-----------------------|
D|-------------------------------------------|------------3--2--0--2-|
A|--2--------------------2-------------------|5--3--2--0-------------|
E|--0--0--0--0--0--0--0--0--0--0--0--0--0--0-|-----------------------|

    
                                                                                                                                                                                                                                                                                                                                                                                                                                                                                                                                                                                                                                                                                                                                                                                                                                                                                                                                                                                                                                                                                                                                                                                              
E|-------------------------------------------|-----------------------------------|
B|-------------------------------------------|-----------------------------------|
G|-------------------------------------------|-----------------------------------|
D|-------------------------------------------|5-----4-----2-----------3----------|
A|--2--------------------2-------------------|3-----2-----0-----4-----1-----3----|
E|--0--0--0--0--0--0--0--0--0--0--0--0--0--0-|------------------2-----------1----|

    
                                                                                                                                                                                                                                                                                                                                                                                                                                                                                                                                                                                                                                                                                                                                                                                                                                                                                                                                                                                                                                                                                                                                                                                              
E|-------------------------------------------|-----------------------|
B|-------------------------------------------|-----------------------|
G|-------------------------------------------|-----------------------|
D|-------------------------------------------|------------3--2--0--2-|
A|--2--------------------2-------------------|5--3--2--0-------------|
E|--0--0--0--0--0--0--0--0--0--0--0--0--0--0-|-----------------------|

    
                                                                                                                                                                                                                                                                                                                                                                                                                                                                                                                                                                                                                                                                                                                                                                                                                                                                                                                                                                                                                                                                                                                                                                                              
E|-------------------------------------------|-----------------------------------|
B|-------------------------------------------|-----------------------------------|
G|-------------------------------------------|-----------------------------------|
D|-------------------------------------------|5-----4-----2-----------3----------|
A|--2--------------------2-------------------|3-----2-----0-----4-----1-----3----|
E|--0--0--0--0--0--0--0--0--0--0--0--0--0--0-|------------------2-----------1----|

    
                                                                                                                                                                                                                                                                                                                                                                                                                                                                                                                                                                                                                                                                                                                                                                                                                                                                                                                                                                                                                                                                                                                                                                                              
E|-------------------------------------------|-----------------------|
B|-------------------------------------------|-----------------------|
G|-------------------------------------------|-----------------------|
D|-------------------------------------------|------------3--2--0--2-|
A|--2--------------------2-------------------|5--3--2--0-------------|
E|--0--0--0--0--0--0--0--0--0--0--0--0--0--0-|-----------------------|

    
                                                                                                                                                                                                                                                                                                                                                                                                                                                                                                                                                                                                                                                                                                                                                                                                                                                                                                                                                                                                                                                                                                                                                                                              
E|-------------------------------------------|-----------------------------------|
B|-------------------------------------------|-----------------------------------|
G|-------------------------------------------|-----------------------------------|
D|-------------------------------------------|5-----4-----2-----------3----------|
A|--2--------------------2-------------------|3-----2-----0-----4-----1-----3----|
E|--0--0--0--0--0--0--0--0--0--0--0--0--0--0-|------------------2-----------1----|

    
                                                                                                                                                                                                                                                                                                                                                                                                                                                                                                                                                                                                                                                                                                                                                                                                                                                                                                                                                                                                                                                                                                                                                                                              
E|-------------------------------------------------|-----------------------------------------------|
B|-------------------------------------------------|-----------------------------------------------|
G|-------------------------------------------------|-----------------------------------------------|
D|-------------------------------------------------|10-7--7--7--10-7--7--7-------------------------|
A|--7--7--7--7--7--7--7--7--10-7--7--7--7--7--7--7-|------------------------10-7--7--7--10-7--7--7-|
E|-------------------------------------------------|-----------------------------------------------|

    
                                                                                                                                                                                                                                                                                                                                                                                                                                                                                                                                                                                                                                                                                                                                                                                                                                                                                                                                                                                                                                                                                                                                                                                              
E|-------------------------------------------------|-----------------------------------|
B|-------------------------------------------------|-----------------------------------|
G|-------------------------------------------------|-----------------------------------|
D|-------------------------------------------------|-----------------------------------|
A|--6--6--6--6--6--6--6--6--7--6--6--6--6--6--6--6-|9--6--6--6--9--6--6--6--5--3--2--0-|
E|-------------------------------------------------|-----------------------------------|

    
                                                                                                                                                                                                                                                                                                                                                                                                                                                                                                                                                                                                                                                                                                                                                                                                                                                                                                                                                                                                                                                                                                                                                                                              
E|-------------------------------------------|--------------------------------|
B|-------------------------------------------|--------------------------------|
G|-------------------------------------------|--------------------------------|
D|-------------------------------------------|------------------------6-------|
A|--2--------------------2-------------------|2--------------------5--4-----5-|
E|--0--0--0--0--0--0--0--0--0--0--0--0--0--0-|0--0--0--0--0--0--0--3--------3-|

    
                                                                                                                                                                                                                                                                                                                                                                                                                                                                                                                                                                                                                                                                                                                                                                                                                                                                                                                                                                                                                                                                                                                                                                                              
E|-------------------------------------------|--------------------------------|
B|-------------------------------------------|--------------------------------|
G|-------------------------------------------|--------------------------------|
D|-------------------------------------------|--------------------------------|
A|--2--------------------2-------------------|2--------------------5--3--2--0-|
E|--0--0--0--0--0--0--0--0--0--0--0--0--0--0-|0--0--0--0--0--0--0-------------|

About Coma of Souls : Coma of Souls is the fifth studio album by German thrash metal band Kreator . It was reissued in 2002 with the lyrics for the last four songs missing from the booklet . It would be the last record issued in the U.S. by Epic Records . Coma of Souls was also released in the U.S. as a limited edition in purple vinyl . Although the album's lyrics contain no profanity, original copies of the album had a Parental Advisory label on the cover . In March 2018, German heavy metal record label Noise released a remastered edition of Kreator . The release contains a live performance at Stadthalle Fürth, Germany on 6th December It had a contribution from notable artists like Frank "Blackfire" Gosdzik. It had an affiliation to bands - Coma of Souls,Kreator. Its music is influenced by genres - thrash metal.

tabs and chords, guitar tabs, music transcription, music technology, deep learning, music information retrieval, transcribe into tabs & chords, chordify, music renditions, songsterr, reverbnation, tabulature, bollywood chords, ultimate guitar, yousician, guitar lessons, acoustic guitar, electric guitar, guitar tuner, 911 tabs