Guitar Tabs for Agar tum sath ho

Tabs for Song : Agar tum sath ho

pal bhar thahar jao
E|--3--------3--6--4--3-----------------
B|-----6-----------------6--4--3--4-----
G|--------------------------------------
D|--------------------------------------
A|--------------------------------------
E|--------------------------------------

dil ye sambhal jaaye
E|--3--------3--6--4--3-----------------
B|-----6-----------------6--4--3--4-----
G|--------------------------------------
D|--------------------------------------
A|--------------------------------------
E|--------------------------------------

kese tumhe roka karun
E|-----6--6--6--6-----8--6--3--4-----3--4--------
B|--4--------------------------------------6-----
G|-----------------------------------------------
D|-----------------------------------------------
A|-----------------------------------------------
E|-----------------------------------------------

meri taraf aata har gham phisal jaye
E|--3-----3--6--4--3-----------------3-----3--6--4--3-----------------
B|-----6--------------6--4--3--4--------6--------------6--4--3--4-----
G|--------------------------------------------------------------------
D|--------------------------------------------------------------------
A|--------------------------------------------------------------------
E|--------------------------------------------------------------------

aankho mein tum ko bharun
E|-----6--6--6--6-----8--6--3--4-----3--4--------
B|--4--------------------------------------6-----
G|-----------------------------------------------
D|-----------------------------------------------
A|-----------------------------------------------
E|-----------------------------------------------

bin bole baatein tumse karun
E|-----4--6--10-11----11-3--------3--6--4--3-----
B|--6-----------------------6--------------------
G|-----------------------------------------------
D|-----------------------------------------------
A|-----------------------------------------------
E|-----------------------------------------------

agar tum sath ho.
E|--------4-----4--3-----4-----
B|--4--6--------------6--------
G|-----------------------------
D|-----------------------------
A|-----------------------------
E|-----------------------------

agar tum sath ho..
E|--------4-----4--3-----4-----
B|--4--6--------------6--------
G|-----------------------------
D|-----------------------------
A|-----------------------------
E|-----------------------------
tabs and chords, guitar tabs, music transcription, music technology, deep learning, music information retrieval, transcribe into tabs & chords, chordify, music renditions, songsterr, reverbnation, tabulature, bollywood chords, ultimate guitar, yousician, guitar lessons, acoustic guitar, electric guitar, guitar tuner, 911 tabs