Bass Tabs for Aerosmith - Jaded

Aerosmith - Jaded

Intro & Guitar Solo
G|-----------------------------------------------------7--------6--7--9-----
D|-----------7--------------7--------------7--------------------------------   2x
A|-----------------------------------------------5--5------5----------------
E|---5/12-5---------5/12-5---------5/12-5-----------------------------------

Verse
G|-----------------------------------6-----------------7-----7-----6--7--9--
D|-----7--------6--7-----7--------6--------7--------6-----------------------
A|--------------------------------------------------------5-----5-----------
E|--5-----5--5--------5-----5--5--------5-----5--5--------------------------

Pre-Chorus
G|--------4--------4-----7--------7-----4--------4-----
D|-----------------------------------------------------
A|--2--2-----2--2-----5-----5--5-----2-----2--2-----5--
E|-----------------------------------------------------

Chorus
G|----------------------------------------------------------------------2------
D|--------------------------------------------------------2--2--2-2--4-----4---
A|--0--0--0-0--2--4---------------------4--4--4--4--2--4-----------------------
E|-------------------2--2--2-2--0--2--0----------------------------------------

Chorus Ending
G|--------------------------
D|--------------------------
A|--5--5--5--5--5--5--5--2--
E|--------------------------

Pre Guitar Solo

G|-----------------------------------------
D|--2--2--2--2--2--2--0--0--0--0--0--0--0-- 3x  
A|-----------------------------------------
E|-----------------------------------------

G|-----------------------------------------------------------------------------------
D|-----------------------------------------------------------------------------------
A|--3--3--3--3--3--3--2--2--2--2--2--2--2--1--1--1--1--1--1--1--1--1--1--1--1---1/13-
E|-----------------------------------------------------------------------------------

Last Chorus Ending

G|--------------------------------------------------------------------------------------------------------------
D|-----------------------4--4--4--4--4--4--4-----------------------4--4--4--4--4--4--4--------------------------
A|--5--5--5--5--5--5--5-----------------------5--5--5--5--5--5--5-----------------------5--5--5--5--5--5--5--2--
E|--------------------------------------------------------------------------------------------------------------



tabs and chords, guitar tabs, music contests, music covers, songsterr, reverbnation, renditions, tabulature, bollywood chords, ultimate guitar, yousician, guitar lessons, torrins, fender, gibson, acoustic guitar, electric guitar, youtube covers, gootar, guitar tuner, A-Z tabs, 911 tabs