Guitar Tabs for Ae Dil Hai Mushkil - Tabs

Tabs for Song : Ae dil hai mushkil

tu safar mera hai tu hi meri manzil
E|--------------------------------------------------------
B|--------------------------------------------------------
G|--3-----4--3-----4--3-----4--3--4--3--1--1-----1--3-----
D|--------------------------------------------------------
A|--------------------------------------------------------
E|--------------------------------------------------------

tere bina guzara ae dil hai mushkil
E|--------------------------------------------------------------
B|--------------------------------------------------------------
G|--3--1-----3--1-----3--1--------------------4--4--4--3--3-----
D|--------------------------4--4--3-----3-----------------------
A|--------------------------------------------------------------
E|--------------------------------------------------------------

tu mera khuda tuhi dua mein shamil
E|--------------------------------------------------------
B|--------------------------------------------------------
G|--3-----4--3-----4--3-----4--3--4--3--1--1-----1--3-----
D|--------------------------------------------------------
A|--------------------------------------------------------
E|--------------------------------------------------------

tere bina guzara ae dil hai mushkil
E|--------------------------------------------------------------
B|--------------------------------------------------------------
G|--3--1-----3--1-----3--1--------------------4--4--4--3--3-----
D|--------------------------4--4--3-----3-----------------------
A|--------------------------------------------------------------
E|--------------------------------------------------------------

mujhe aazmati hai teri kami
E|--1--2-----2--4--2--1--------------------------------
B|-----------------------4--2--0--0-----4--2--0--------
G|-----------------------------------------------3-----
D|-----------------------------------------------------
A|-----------------------------------------------------
E|-----------------------------------------------------

meri har kami ko hai tu laazmi
E|--1--2-----2--4--2--1--------------------------------
B|-----------------------4--2--0--0-----4--2--0--------
G|-----------------------------------------------3-----
D|-----------------------------------------------------
A|-----------------------------------------------------
E|-----------------------------------------------------

zunoon hai mera banu mein tere qabil
E|--------------------------------------------------------
B|--------------------------------------------------------
G|--4--3-----4--3-----4--3-----4--3--4--3--1--1--1--3-----
D|--------------------------------------------------------
A|--------------------------------------------------------
E|--------------------------------------------------------

tere bina guzara ae dil hai mushkil
E|-----------------------------------------------------------
B|-----------------------------------------------------------
G|--3--1-----3--1-----3--1-----------------4--4--4--3--3-----
D|--------------------------4--4--3-----3--------------------
A|-----------------------------------------------------------
E|-----------------------------------------------------------

ye rooh bhi mera yeh jim bhi mera
E|-----4--2--1-----2--------4--2--1-----2-----
B|--------------4--------------------4--------
G|--3--------------------3--------------------
D|--------------------------------------------
A|--------------------------------------------
E|--------------------------------------------

utna mera nahi jitna hua tera
E|--------4--2--1--------1-----------4--2--1-----1-----
B|-----------------4--4-----------------------4--------
G|--3--3-----------------------3--3--------------------
D|-----------------------------------------------------
A|-----------------------------------------------------
E|-----------------------------------------------------

tune diya hai jo wo dard hi sahi
E|-----4--2--1-----2--------4--2--1-----2-----
B|--------------4--------------------4--------
G|--3--------------------3--------------------
D|--------------------------------------------
A|--------------------------------------------
E|--------------------------------------------

tujhse mila hai to inaam hai mera
E|--------4--2--1--------1--------4--2--1-----1-----
B|-----------------4--4--------------------4--------
G|--3--3--------------------3--3--------------------
D|--------------------------------------------------
A|--------------------------------------------------
E|--------------------------------------------------

mera aasmaan dhoondhe teri zameen
E|--1--2-----2--4--2--1-----------------------------
B|-----------------------4--2--0--0--4--2--0--------
G|--------------------------------------------3-----
D|--------------------------------------------------
A|--------------------------------------------------
E|--------------------------------------------------

meri har kami ko hai tu laazmi
E|--1--2-----2--4--2--1-----------------------------
B|-----------------------4--2--0--0--4--2--0--------
G|--------------------------------------------3-----
D|--------------------------------------------------
A|--------------------------------------------------
E|--------------------------------------------------

zameen pe na sahi toh aasmaan mein aa mil
E|--------------------------------------------------------
B|--------------------------------------------------------
G|--4--3-----4--3-----4--3-----4--3--4--3--1--1--1--3-----
D|--------------------------------------------------------
A|--------------------------------------------------------
E|--------------------------------------------------------

tere bina guzara ae dil hai mushkil
E|-----------------------------------------------------------
B|-----------------------------------------------------------
G|--3--1-----3--1-----3--1-----------------4--4--4--3--3-----
D|--------------------------4--4--3-----3--------------------
A|-----------------------------------------------------------
E|-----------------------------------------------------------


tabs and chords, guitar tabs, music transcription, music technology, deep learning, music information retrieval, transcribe into tabs & chords, chordify, music renditions, songsterr, reverbnation, tabulature, bollywood chords, ultimate guitar, yousician, guitar lessons, acoustic guitar, electric guitar, guitar tuner, 911 tabs