Adrnaline - Jean-paul Cambefort - Guitar Tabs

Guitare FĂ©vrier 2002
    
                                                                                                                                                                                                                                                                                                                                                                                                                                                                                                                                                                                                                                                                                                                                                                                                                                                                                                                                                                                                                                                                                                                                                                                              
E|-----------------0-------|-----------------------|
B|-----------------0-------|-----------------------|
G|--------12----13-13----13|-----------------------|
D|--------11----12-------12|---------------2--0----|
A|--------10----11-------11|---------2--4--------2-|
E|--0--0--------------0----|---0--4----------------|

    
                                                                                                                                                                                                                                                                                                                                                                                                                                                                                                                                                                                                 
E|-----------------0-------|
B|--------3-----3--------3-|
G|--------4-----4--------4-|
D|-------------------------|
A|-------------------------|
E|--0--0--0--0--0-----0--0-|

    
                                                                                                                                                                                                                                                                                                                                                                                                                                                                                                                                                                                                                                                                                                                                                                                                                                                                                                                                                                                                                                                                                                                                                                                              
E|-------------------------|---------------0-----7-|
B|-----2-----0-------------|------3-----3--------9-|
G|-----2-----1-------------|------4-----4--------9-|
D|-----------------------2-|-----------------------|
A|-----------------0--4----|-----------------------|
E|--0--0--0--0--0----------|0--0--0--0--0-----0--0-|

    
                                                                                                                                                                                                                                                                                                                                                                                                                                                                                                                                                                                                                                                                                                                                                                                                                                                                                                                                                                                                                                                                                                                                                                                              
E|-----5-----4-------------|---------------0-------|
B|-----7-----5-------------|------3-----3--------3-|
G|-----7-----4-------------|------4-----4--------4-|
D|--------------------x--x-|x----------------------|
A|--------------------x--x-|x----------------------|
E|--0--0--0--0--0--0--0--3-|0--0--0--0--0-----0--0-|

    
                                                                                                                                                                                                                                                                                                                                                                                                                                                                                                                                                                                                 
E|-------------------------|
B|-----2-----0-------------|
G|-----2-----1-------------|
D|-----------------------2-|
A|-----------------0--4----|
E|--0--0--0--0--0----------|

    
                                                                                                                                                                                                                                                                                                                                                                                                                                                                                                                                                                                                                                                                                                                                                                                                                                                                                                                                                                                                                                                                                                                                                                                              
E|-----------------0-----10|---9------7p0----------|
B|--------3-----3--------12|---10-----9p---9-----0-|
G|--------4-----4--------13|---9------9p------9----|
D|-------------------------|-----------------------|
A|-------------------------|-----------------------|
E|--0--0--0--0--0-----0--0-|0--0--0---0p-----------|

    
                                                                                                                                                                                                                                                                                                                                                                                                                                                                                                                                                                                                                                                                                                                                                                                                                                                                                                                                                                                                                                                                                                                                                                                              
E|-----------------0-----10|---9------7p0----------|
B|--------3-----3--------12|---10-----8p---8-----0-|
G|--------4-----4--------12|---9------7p------7----|
D|-------------------------|-----------------------|
A|-------------------------|-----------------------|
E|--0--0--0--0--0-----0--0-|0--0--0---0p-----------|

    
                                                                                                                                                                                                                                                                                                                                                                                                                                                                                                                                                                                                                                                                                                                                                                                                                                                                                                                                                                                                                                                                                                                                                                                              
E|-----------------0-------|---------------------0-|
B|--------0-----0--0-----8-|------8--8--8--------8-|
G|--------6-----6--0-----6-|---6--6--6--6--9--9--9-|
D|--------5-----5--------7-|---7--7--7--7--10-11---|
A|--------4-----4-----0----|---0-------------------|
E|--5--5-------------------|-----------------------|

    
                                                                                                                                                                                                                                                                                                                                                                                                                                                                                                                                                                                                                                                                                                                                                                                                                                                                                                                                                                                                                                                                                                                                                                                              
E|-----------------0-------|-----------------------|
B|-----------------0-----8-|------8--8--8--12-10/8-|
G|--------6-----6--0-----6-|---6--6--6--6--12--0/--|
D|--------5-----5--------7-|---7--7--7--7--11-11/9-|
A|--0--0--4-----4-----0----|---0-------------------|
E|--------5-----5----------|-----------------------|

    
                                                                                                                                                                                                                                                                                                                                                                                                                                                                                                                                                                                                                                                                                                                                                                                                                                                                                                                                                                                                                                                                                                                                                                                              
E|-----------------0-------|-----------------------|
B|--------3-----3--------3-|---2-----0-------------|
G|--------4-----4--------4-|---2-----1-------------|
D|-------------------------|---------------------2-|
A|-------------------------|---------------0--4----|
E|--0--0--0--0--0-----0--0-|0--0--0--0--0----------|

    
                                                                                                                                                                                                                                                                                                                                                                                                                                                                                                                                                                                                                                                                                                                                                                                                                                                                                                                                                                                                                                                                                                                                                                                              
E|-----------------0-----7-|---5-----4-------------|
B|--------3-----3--------9-|---7-----5-------------|
G|--------4-----4--------9-|---7-----4-------------|
D|-------------------------|------------------x--x-|
A|-------------------------|------------------x--x-|
E|--0--0--0--0--0-----0--0-|0--0--0--0--0--0--0--3-|

    
                                                                                                                                                                                                                                                                                                                                                                                                                                                                                                                                                                                                                                                                                                                                                                                                                                                                                                                                                                                                                                                                                                                                                                                              
E|-------------------------|-----------------------|
B|--------0----------------|-----------------------|
G|--------7--------7--x--9-|---9-----------9--x--7-|
D|--------7--------7--x--8-|---8-----------8--x--7-|
A|--------6--------6-----7-|---7-----------7-----6-|
E|--7--7--7-----7--7-----8-|---8--8--8--8--8-----7-|

    
                                                                                                                                                                                                                                                                                                                                                                                                                                                                                                                                                                                                                                                                                                                                                                                                                                                                                                                                                                                                                                                                                                                                                                                              
E|-------------------------|-----------------------|
B|-----------------0-------|---------------------0-|
G|-----7--------7--7--x--3-|---3-----2-----0--2--0-|
D|-----7--------7--7--x--2-|---2-----1-----1--1--0-|
A|-----6--------6--6-----x-|x--x-----x--------x----|
E|--------7--7-----------3-|x--3-----2-------------|

    
                                                                                                                                                                                                                                                                                                                                                                                                                                                                                                                                                                                                                                                                                                                                                                                                                                                                                                                                                                                                                                                                                                                                                                                              
E|--------0--------0-----0-|---0-----0--5--0--3--0-|
B|--------0--------0-----0-|---0-----0--5--0--0--0-|
G|--------1--------1--x--2-|---2-----2--2--2--2--2-|
D|--2-----2--------2--x--x-|---x-------------------|
A|--2-----2--------2--x--4-|---4-------------------|
E|--0-----------0--------0-|---0-------------------|

    
                                                                                                                                                                                                                                                                                                                                                                                                                                                                                                                                                                                                                                                                                                                                                                                                                                                                                                                                                                                                                                                                                                                                                                                              
E|--------0--------0-----0-|---0--0--0--3--0--0--0-|
B|--------0--------0-----0-|---0--3--0--0--0--3--0-|
G|--------1--------1--x--2-|---2--2--2--2--2--2----|
D|--------2--------2--x--x-|-----------------------|
A|--------2--------2--x--4-|-----------------------|
E|--0-----------0--------0-|-----------------------|

    
                                                                                                                                                                                                                                                                                                                                                                                                                                                                                                                                                                                                                                                                                                                                                                                                                                                                                                                                                                                                                                                                                                                                                                                              
E|--------0--------0-----0-|---0-----0--5--0--3--0-|
B|--------0--------0-----0-|---0-----0--5--0--0--0-|
G|--------1--------1--x--2-|---2-----2--2--2--2--2-|
D|--2-----2--------2--x--x-|---x-------------------|
A|--2-----2--------2--x--4-|---4-------------------|
E|--0-----------0--------0-|---0-------------------|

    
                                                                                                                                                                                                                                                                                                                                                                                                                                                                                                                                                                                                 
E|--------0--------0-----0-|
B|--------0--------0-----0-|
G|--------1--------1--x--2-|
D|--------2--------2--x--x-|
A|--------2--------2--x--4-|
E|--0-----------0--------0-|

    
                                                                                                                                                                                                                                                                                                                                                                                                                                                                                                                                                                                                                                                                                                                                                                                                                                                                                                                                                                                                                                                                                                                                                                                              
E|-----0-----0-----0-------|4--7-----4-------------|
B|-----0-----7-----7-------|5--7-----5-------------|
G|-----2--x--6-----6--x----|4--x-----4-----4-----3-|
D|--------x--7--------x----|6--6-----6--x--4--x--2-|
A|--------x--x--------x----|4-----4-----x--x--x--x-|
E|-----------7-------------|------4--------4-----2-|

    
                                                                                                                                                                                                                                                                                                                                                                                                                                                                                                                                                                                                                                                                                                                                                                                                                                                                                                                                                                                                                                                                                                                                                                                              
E|-----0-----------0-----0-|---0-----------0-----0-|
B|-----0-----------0-----0-|---0-----------0-----0-|
G|-----3-----------3-----2-|---2-----------2-----1-|
D|-----------------------2-|---2-----------------2-|
A|--------x--x--x-----x--x-|------x--x--x-----x--2-|
E|--------2--2--2-----2--2-|------2--2--2-----2--0-|

    
                                                                                                                                                                                                                                                                                                                                                                                                                                                                                                                                                                                                 
E|-------------------------|
B|-------------------------|
G|-------------------------|
D|-----------------2---4/5-|
A|-----------2--4----------|
E|-----0--4----------------|

    
                                                                                                                                                                                                                                                                                                                                                                                                                                                                                                                                                                                                                                                                                                                                                                                                                                                                                                                                                                                                                                                                                                                                                                                              
E|-------------------------|---------------0-----3-|
B|-------------------------|------3-----3--0-----x-|
G|-------------------------|------x-----x--0--x--3-|
D|-----------------2--0----|------3--x--3-----x--2-|
A|-----------2--4----------|------2--x--2-----x--3-|
E|-----0--4--------------2-|3--3--3-----3----------|

    
                                                                                                                                                                                                                                                                                                                                                                                                                                                                                                                                                                                                                                                                                                                                                                                                                                                                                                                                                                                                                                                                                                                                                                                              
E|-----3-----------3--3--0-|---------------0-----3-|
B|-----x--x--x--x--x--x--0-|------3-----3--0-----x-|
G|-----3--3--3--3--3--3--3-|------x-----x--0--x--3-|
D|--------2--2--2-----2----|------3--x--3-----x--2-|
A|-------------------------|------2--x--2-----x--3-|
E|-------------------------|3--3--3-----3----------|

    
                                                                                                                                                                                                                                                                                                                                                                                                                                                                                                                                                                                                                                                                                                                                                                                                                                                                                                                                                                                                                                                                                                                                                                                              
E|-----3--3--3---3/6--6--0-|---------------0-----3-|
B|-----2--2--2---2/5--5--5-|------3-----3--0-----x-|
G|-----3--3--3---3/6--6--6-|------x-----x--0--x--3-|
D|-----2--2--2---2/5--5----|------3--x--3-----x--2-|
A|-------------------------|------2--x--2-----x--3-|
E|-------------------------|3--3--3-----3----------|

    
                                                                                                                                                                                                                                                                                                                                                                                                                                                                                                                                                                                                                                                                                                                                                                                                                                                                                                                                                                                                                                                                                                                                                                                              
E|--------------6--5--3--0-|3--0-------------------|
B|-----3--5--3--6--5--3--0-|3--0-----------0-------|
G|-----0--5--0--0--5--0----|2--2--x--6-----x-------|
D|-------------------------|1-----x--5-----7-------|
A|-------------------------|2-----x--4--x--6-------|
E|-------------------------|---------5--x--7-------|

    
                                                                                                                                                                                                                                                                                                                                                                                                                                                                                                                                                                                                                                                                                                                                                                                                                                                                                                                                                                                                                                                                                                                                                                                              
E|-----------------0-------|-----------------------|
B|--------3-----3--------3-|---2-----0-------------|
G|--------4-----4--------4-|---2-----1-------------|
D|-------------------------|---------------------2-|
A|-------------------------|---------------0--4----|
E|--0--0--0--0--0-----0--0-|0--0--0--0--0----------|

    
                                                                                                                                                                                                                                                                                                                                                                                                                                                                                                                                                                                                                                                                                                                                                                                                                                                                                                                                                                                                                                                                                                                                                                                              
E|-----------------0-----7-|---5-----4-------------|
B|--------3-----3--------9-|---7-----5-------------|
G|--------4-----4--------9-|---7-----4-------------|
D|-------------------------|------------------x--x-|
A|-------------------------|------------------x--x-|
E|--0--0--0--0--0-----0--0-|0--0--0--0--0--0--0--3-|

    
                                                                                                                                                                                                                                                                                                                                                                                                                                                                                                                                                                                                                                                                                                                                                                                                                                                                                                                                                                                                                                                                                                                                                                                              
E|-----------------0-------|-----------------------|
B|--------3-----3--------3-|---2-----0-------------|
G|--------4-----4--------4-|---2-----1-------------|
D|--x----------------------|---------------------2-|
A|--x----------------------|---------------0--4----|
E|--0--0--0--0--0-----0--0-|0--0--0--0--0----------|

    
                                                                                                                                                                                                                                                                                                                                                                                                                                                                                                                                                                                                                                                                                                                                                                                                                                                                                                                                                                                                                                                                                                                                                                                              
E|-----------------0-----10|---9------7p0----------|
B|--------3-----3--------12|---10-----8p---8-----0-|
G|--------4-----4--------12|---9------7p------7----|
D|-------------------------|-----------------------|
A|-------------------------|-----------------------|
E|--0--0--0--0--0-----0--0-|0--0--0---0p-----------|

    
                                                                                                                                                                                                                                                                                                                                                                                                                                                                                                                                                                                                                                                                                                                                                                                                                                                                                                                                                                                                                                                                                                                                                                                              
E|-----------------0-------|---------------------0-|
B|--------0-----0--0-----8-|------8--8--8--------8-|
G|--------6-----6--0-----6-|---6--6--6--6--9--9--9-|
D|--------5-----5--------7-|---7--7--7--7--10-11---|
A|--------4-----4-----0----|---0-------------------|
E|--5--5-------------------|-----------------------|
tabs and chords, guitar tabs, music transcription, music technology, deep learning, music information retrieval, transcribe into tabs & chords, chordify, music renditions, songsterr, reverbnation, tabulature, bollywood chords, ultimate guitar, yousician, guitar lessons, acoustic guitar, electric guitar, guitar tuner, 911 tabs