Guitar Tabs for Adela En El Carrousel

(/) Slide Up  (\) Slide Down  (h) Hammer On  (p) Pull Off  (b) Bend (r) Release (v) Vibrato (x) Muted



Song lyrics here 
E|--------10--------8-----8--------10---------8-----------10----------------------------10--------------10----------------10----------------------------------------------10-------------10----------------10----
B|-----11---11---------10-------11-11-11---10----10----11----------------------10-10-12----8------10-12----8-----10-10-12----8----12-------------12--------------10-10-12----8-----10-12----8-----10-10-12----8--
G|-----12-----------------------12----12---------------12----12----------------------------------------------------------------------10----10-------10----10-----------------------------------------------------
D|--------------------------------------------------------------------------------------------------------------------------------------12-------------12--------------------------------------------------------
A|--10--------------------------10---------------------10--------------------------------------------------------------------------------------------------------------------------------------------------------
E|------------------10---------------------10--------------------------------------------------------------------------------------------------------------------------------------------------------------------

Song lyrics here 
E|--------------------------------------------------------------------------------------
B|--------------------------------------------------------------------------------------
G|--------------------------------------------------------------------------------------
D|----------------3--5-------------3--5--------3--5--3--5-------3--5--------3--5--3--5--
A|-------------5-----------------5----------5----------------5-----------5--------------
E|---3---3h---------------3--3h---------------------------------------------------------
Use manual mode to free up cursor. Paste any tab in acousterr tab maker and we'll play it !!!
Song lyrics here 
E|--
B|--
G|--
D|--
A|--
E|--
tabs and chords, guitar tabs, music transcription, music technology, deep learning, music information retrieval, transcribe into tabs & chords, chordify, music renditions, songsterr, reverbnation, tabulature, bollywood chords, ultimate guitar, yousician, guitar lessons, acoustic guitar, electric guitar, guitar tuner, 911 tabs