Bass Tabs for Adamantine Gates

(/) Slide Up  (\) Slide Down  (h) Hammer On  (p) Pull Off  (b) Bend (r) Release (v) Vibrato (x) Muted

Tabs for Song : 
BPM : 75

Structure 

Sec 1 x 4 
Sec 2 x 1
Sec 3 x 4 
Sec 4 x 1 
Sec 5 x 2
Sec 6 x 2
Sec 7 x 4 
Sec 8 x 4
Sec 9 x 12 

Section 1
F|--------------------------------------------------------------------------------------------------------------------------------------------------------------------------------------------------
C|--------------------------------------------------------------------------------------------------------------------------------------------------------------------------------------------------
G|--7--7--7--7--7--7--7--7--7--7--7--7--7--7--7--7--7--7--7--7--7--7--7--7--7--7--7--7--7--7--7--7--10-10-10-10-10-10-10-10-10-10-10-10-10-10-10-10-10-10-10-10-10-10-10-10-10-10-10-10-10-10-10-10-
D|--------------------------------------------------------------------------------------------------------------------------------------------------------------------------------------------------

Section 2
F|-----------------------------------------------------------------------------------------------------------------------------------------------------------------------------------------------------------------------------------------------------------------------------------------------------------------------
C|-----------------------------------------------------------------------------------------------------------------------------------------------------------------------------------------------------------------------------------------------------------------------------------------------------------------------
G|--------7--7--7--7--7--7--7--7--7--7--7--7--8--8--8--8--8--8--8--8--3--3--3--3--3--3--3--3--------7--7--7--7--7--7--7--7--7--7--7--7--8--8--8--8--8--8--8--8--10-10-10-10-10-10-10-10-------7--7--7--7--7--7--7--7--7--7--7--7--8--8--8--8--8--8--8--3--3--3--3--3--3--3--3--2-----2--2--2--2--------------------------
D|--0-----------------------------------------------------------------------------------------0-----------------------------------------------------------------------------------------0--------------------------------------------------------------------------------------------------------3--3--3--3--1--1--1--1--

Section 3
F|-----------------------------------------------------------------------------------------------------------------------------------------------------------------------------------------------------------------------------------------------------------------------
C|-----------------------------------------------------------------------------------------------------------------------------------------------------------------------------------------------------------------------------------------------------------------------
G|-----------------------------------------------7-----------------8--8-----------------------------------------------7-----------------10-10-10-------------------------------------------7-----------------8-----8-----3--3--3--3--3--3--3--3--2--2--2--2--2--2--2--2--
D|--0--------0--0--0--0--0--0--0--0--0--0--0--0--------0--0--0--0-----------0-----0--0--0--0--0--0--0--0--0--0--0--0--------0--0--0--0-----------0-----0--0--0--0--0--0--0--0--0--0--0--0--------0--0--0--0--------------------------------------------------------------

Section 4
F|-----------------------------------------------------------------------------------
C|-----------------------------------------------------------------------------------
G|--------7--7--7--7--7--7--7--7--7--7--7--7--7--7--7--7--7--7--7--7--7--7--7--------
D|--0-----------------------------------------------------------------------------0--

Section 5
F|-----------------------------------------------------------------------------------------------------------------------------------------------------------------------------------------------------
C|-----------------------------------------------------------------------------------------------------------------------------------------------------------------------------------------------------
G|-----------------------------------------------------------------------------------------------------------------------------------------------------------------------------------------------------
D|--0-----0--0--0--0--0--0--1-----1--1--1--1--1--1--0-----0--0--0--0--0--0--1-----1--1--4-----4--4--0-----0--0--0--0--0--0--1-----1--1--1--1--1--1--4-----4--4--4--4--4--4--3-----3--3--3--3--3--3--3--

Section 6 
F|--------------------------------------------------------------------------------------------------
C|--------------------------------------------------------------------------------------------------
G|-----------------------------------------------------------------------------10-7--7--8--8--8--8--
D|--0-----0--0--0--0--0--0--1--1--1--4--4--4--4--4--4--0-----0--0--0--0--0--0-----------------------

Section 7
F|--------------------------------------------------------------------------------------------------------------------------------------------------------------------------------------
C|--------------------------------------------------------------------------------------------------------------------------------------------------7--7--7--7--3--3--3--3--3--3--3--3--
G|--5--5--5--5--8--8--8--8--8--8--8--8--8--8--8--8--4--4--4--4--7--7--7--7--7--7--7--7--7--7--7--7--5--5--5--5--8--8--8--8--8--8--8--8--8--8--8--8--------------------------------------
D|--------------------------------------------------------------------------------------------------------------------------------------------------------------------------------------

Section 8  
F|-----------------------------------------------------------------------------------------------
C|-----------------------------------------------------------------------------------------------
G|--5-----5--5--5--5--5--5--5--5--5--6--5--3--5--5-----5--5--5--5--5--5--8--8--8--8--8--8--8--8--
D|-----------------------------------------------------------------------------------------------

Section 9 
F|-----------------------------------------------------------------------------------------------------------------
C|-----------------------------------------------------------------------------------------------------------------
G|-----------------------------------------------------------------------------------------------------------------
D|--0-----0--0--0--0--0--0--0--0--0--0--0--0--0--0--1--0--1--0--4--4--4--4--4--4--4--4--4--4--4--4-----4--3-----0--

Use manual mode to free up cursor. Paste any tab in acousterr tab maker and we'll play it !!!

tabs and chords, guitar tabs, music transcription, music technology, deep learning, music information retrieval, transcribe into tabs & chords, chordify, music renditions, songsterr, reverbnation, tabulature, bollywood chords, ultimate guitar, yousician, guitar lessons, acoustic guitar, electric guitar, guitar tuner, 911 tabs