Guitar Tabs for Act Naturally By Buck Owens

(/) Slide Up  (\) Slide Down  (h) Hammer On  (p) Pull Off  (b) Bend (r) Release (v) Vibrato

Tabs for Song : 

Song lyrics here
E|-----------------------------------------------------------------------------------------------------
B|-----------------------------------------------------------------------------------------------------
G|-----------------------------------------------------------------------------------------------------
D|--5--5--5--5--5--5--7-----5--5--5--5--5--5--------5--5--5--5--5--5--7-----5--5--5--5--5--5-----------
A|-----------------------8--------------------7--5-----------------------8--------------------7--5-----
E|--------------------------------------------------------------------------------------------------8--

Song lyrics here
E|--------------------------------------------------------------------------------------------------
B|--------------------------------------------------------------------------------------------------
G|--------------------------------------------------------------------------------------------------
D|--------5--7--5--3--------------5--7--5--------------5--7--5--------------------4--5--5--3--------
A|--5--5--------------7-----5--5-----------8--7--5--5-----------8--7-----5--5--7--------------7--5--
E|-----------------------8--------------------------------------------8-----------------------------

Add more lines by placing cursor below and adding notes
tabs and chords, guitar tabs, music transcription, music technology, deep learning, music information retrieval, transcribe into tabs & chords, chordify, music renditions, songsterr, reverbnation, tabulature, bollywood chords, ultimate guitar, yousician, guitar lessons, acoustic guitar, electric guitar, guitar tuner, 911 tabs