Acid Rain - Guitar Tabs

BPM : 194


E|--------------------------------------5-----------------------------------------------5-----------
B|--------------5--6-----------------------6--------------------5--6-----------------------6--------
G|--------7-----------7-----------7-----------7-----------7-----------7-----------7-----------7-----
D|-----7-----7-----------7-----7-----7-----------7-----7-----7-----------7-----7-----7--------------
A|--5-----------------------5-----------------------5-----------------------5-----------------------
E|--------------------------------------------------------------------------------------------------

Puis ├ža fois 2 :

E|-----------------4--3--------------------4--3-----
B|--------------------4-----------------------4-----
G|--------5--------------5--------5--------------5--
D|-----5-----5-----------------5-----5--------------
A|--3-----------------------3-----------------------
E|--------------------------------------------------
tabs and chords, guitar tabs, music transcription, music technology, deep learning, music information retrieval, transcribe into tabs & chords, chordify, music renditions, songsterr, reverbnation, tabulature, bollywood chords, ultimate guitar, yousician, guitar lessons, acoustic guitar, electric guitar, guitar tuner, 911 tabs