Guitar Tabs for Aces Up Your Sleeve

(/) Slide Up  (\) Slide Down  (h) Hammer On  (p) Pull Off  (b) Bend (r) Release (v) Vibrato (x) Muted

Tabs & Chords
BPM : 93.0
Check Track 2 for Chord Positions 

    D                                   Bm       A        G              D                       
E|--2-----------------3--3--3-----2--------------------------------------------------------------
B|-----------------3--------------------------------2-----0--0-----------------------------------
G|--------2-----2-----------------------------------------------------------------------------2--
D|-----------------------------------------------------------------0-----0-----4--4-----4--------
A|--------------------------------------2--2-----4-----------------------------------------------
E|-----------------------------------------------------------------------------------------------

                            Bm    A           G           D                                   
E|--------------------------------------------------------------------------------------------
B|--------------------3-----------------2-----------------------3-----------------------------
G|--2--0-----------2--------------------------------------------------2--2--------------2--0--
D|-----------4--------------2-----0-----------------------------------------4-----4--4--------
A|-----------------------------------4--------2--------0--------------------------------------
E|-----------------------------------------6-----4--4-----4-----------------------------------

                               Bm             D     
E|--------------------------------------------------
B|-----------------------------------------------3--
G|-----0--------------------------------------------
D|--------4--4-----4--3-----4--4-----3--2-----0-----
A|--------------------------------------------------
E|--------------------------------------------------

Guitar Tabs for Aces Up Your Sleeve






    D                                   Bm       A        G              D                       
E|--2-----------------------------------2--------0--------3--------------2-----------------------
B|--3-----------------------------------3--------2--------3--------------3-----------------------
G|--2-----------------------------------4--------2--------4--------------2-----------------------
D|--0-----------------------------------4--------2--------5--------------0-----------------------
A|--------------------------------------2--------0--------5--------------------------------------
E|--------------------------------------------------------3--------------------------------------

                            Bm    A           G           D                                   
E|--------------------------2-----0-----------3-----------2-----------------------------------
B|--------------------------3-----2-----------3-----------3-----------------------------------
G|--------------------------4-----2-----------4-----------2-----------------------------------
D|--------------------------4-----2-----------5-----------0-----------------------------------
A|--------------------------2-----0-----------5-----------------------------------------------
E|--------------------------------------------3-----------------------------------------------

                               Bm             D     
E|-----------------------------2--------------2-----
B|-----------------------------3--------------3-----
G|-----------------------------4--------------2-----
D|-----------------------------4--------------0-----
A|-----------------------------2--------------------
E|--------------------------------------------------

tabs and chords, guitar tabs, music transcription, music technology, deep learning, music information retrieval, transcribe into tabs & chords, chordify, music renditions, songsterr, reverbnation, tabulature, bollywood chords, ultimate guitar, yousician, guitar lessons, acoustic guitar, electric guitar, guitar tuner, 911 tabs