Ability - Normal - Dragon Ash - Guitar Tabs

Guitar 1
    
                                                                                                                                                                                                                                                                                                                                                                                                                                                                                                                                                                                                                                                                                                                                                                                                                                                                                                                                                                                                                                                                                                                                                                                              
E|----------------------------------------|--------------------------------------|
B|--5-----5--x--x--5-----x--x--x--5--x--x-|5-----5--x--x--5-----x--x--x--5--x--x-|
G|--6-----6--x--x--6-----x--x--x--6--x--x-|6-----6--x--x--6-----x--x--x--6--x--x-|
D|--7-----7--x--x--7-----x--x--x--7--x--x-|7-----7--x--x--7-----x--x--x--7--x--x-|
A|--7-----7--x--x--7-----x--x--x--7--x--x-|7-----7--x--x--7-----x--x--x--7--x--x-|
E|--5-----5--x--x--5-----x--x--x--5--x--x-|5-----5--x--x--5-----x--x--x--5--x--x-|

    
                                                                                                                                                                                                                                                                                                                                                                                                                                                                                                                                                                                                                                                                                                                                                                                                                                                                                                                                                                                                                                                                                                                                                                                              
E|----------------------------------------|--------------------------------------|
B|--5-----5--x--x--5-----x--x--x--5--x--x-|5-----5--x--x--5-----x--x--x--5--x--x-|
G|--6-----6--x--x--6-----x--x--x--6--x--x-|6-----6--x--x--6-----x--x--x--6--x--x-|
D|--6-----6--x--x--6-----x--x--x--6--x--x-|6-----6--x--x--6-----x--x--x--6--x--x-|
A|--4-----4--x--x--4-----x--x--x--4--x--x-|4-----4--x--x--4-----x--x--x--4--x--x-|
E|----------------------------------------|--------------------------------------|

    
                                                                                                                                                                                                                                                                                                                                                                                                                                                                                                                                                                                                                                                                                                                                                                                                                                                                                                                                                                                                                                                                                                                                                                                              
E|----------------------------------------|--------------------------------------|
B|--5-----5--x--x--5-----x--x--x--5--x--x-|5-----5--x--x--5-----x--x--x--5--x--x-|
G|--6-----6--x--x--6-----x--x--x--6--x--x-|6-----6--x--x--6-----x--x--x--6--x--x-|
D|--7-----7--x--x--7-----x--x--x--7--x--x-|7-----7--x--x--7-----x--x--x--7--x--x-|
A|--7-----7--x--x--7-----x--x--x--7--x--x-|7-----7--x--x--7-----x--x--x--7--x--x-|
E|--5-----5--x--x--5-----x--x--x--5--x--x-|5-----5--x--x--5-----x--x--x--5--x--x-|

    
                                                                                                                                                                                                                                                                                                                                                                                                                                                                                                                                                                                                                                                                                                                                                                                                                                                                                                                                                                                                                                                                                                                                                                                              
E|----------------------------------------|--------------------------------------|
B|--5-----5--x--x--5-----x--x--x--5--x--x-|5-----5--x--x--5-----x--x--x--5--x--x-|
G|--6-----6--x--x--6-----x--x--x--6--x--x-|6-----6--x--x--6-----x--x--x--6--x--x-|
D|--6-----6--x--x--6-----x--x--x--6--x--x-|6-----6--x--x--6-----x--x--x--6--x--x-|
A|--4-----4--x--x--4-----x--x--x--4--x--x-|4-----4--x--x--4-----x--x--x--4--x--x-|
E|----------------------------------------|--------------------------------------|

    
    A                                                                                                                                                                                                                                                                                                                                                                                                                                                                                                                                                                                             
E|-------------------------------|
B|--5-----5--x--x--5-------------|
G|--6-----6--x--x--6-------------|
D|--7-----7--x--x--7-------------|
A|--7-----7--x--x--7-------------|
E|--5-----5--x--x--5-------------|

    
                                                                                                                                                                                                                                                                                                                                                                                                                                                                                                                                                                                                 
E|-------------------------------|
B|--5-----5--x--x--5-------------|
G|--6-----6--x--x--6-------------|
D|--6-----6--x--x--6-------------|
A|--4-----4--x--x--4-------------|
E|-------------------------------|

    
                                                                                                                                                                                                                                                                                                                                                                                                                                                                                                                                                                                                 
E|-------------------------------|
B|--5-----5--x--x--5-------------|
G|--6-----6--x--x--6-------------|
D|--7-----7--x--x--7-------------|
A|--7-----7--x--x--7-------------|
E|--5-----5--x--x--5-------------|

    
                                                                                                                                                                                                                                                                                                                                                                                                                                                                                                                                                                                                 
E|-------------------------------|
B|--5-----5--x--x--5-------------|
G|--6-----6--x--x--6-------------|
D|--6-----6--x--x--6-------------|
A|--4-----4--x--x--4-------------|
E|-------------------------------|

    
    B                                                                                                                                                                                                                                                                                                                                                                                                                                                                                                                                                                                             B                                                                                                                                                                                                                                                                                                                                                                                                                                                                                                                                                                                             
E|----------------------------------------|--------------------------------------|
B|--5-----5--x--x--5-----x--x--x--5--x--x-|5-----5--x--x--5-----x--x--x--5--x--x-|
G|--6-----6--x--x--6-----x--x--x--6--x--x-|6-----6--x--x--6-----x--x--x--6--x--x-|
D|--7-----7--x--x--7-----x--x--x--7--x--x-|6-----6--x--x--6-----x--x--x--6--x--x-|
A|--7-----7--x--x--7-----x--x--x--7--x--x-|4-----4--x--x--4-----x--x--x--4--x--x-|
E|--5-----5--x--x--5-----x--x--x--5--x--x-|--------------------------------------|

    
                                                                                                                                                                                                                                                                                                                                                                                                                                                                                                                                                                                                                                                                                                                                                                                                                                                                                                                                                                                                                                                                                                                                                                                              
E|----------------------------------------|--------------------------------------|
B|--2-----2--x--x--2-----x--x--x--2--x--x-|4-----4--x--x--4-----x--x--x--4--x--x-|
G|--2-----2--x--x--2-----x--x--x--2--x--x-|4-----4--x--x--4-----x--x--x--4--x--x-|
D|--4-----4--x--x--4-----x--x--x--4--x--x-|6-----6--x--x--6-----x--x--x--6--x--x-|
A|--4-----4--x--x--4-----x--x--x--4--x--x-|6-----6--x--x--6-----x--x--x--6--x--x-|
E|--2-----2--x--x--2-----x--x--x--2--x--x-|4-----4--x--x--4-----x--x--x--4--x--x-|

    
                                                                                                                                                                                                                                                                                                                                                                                                                                                                                                                                                                                                                                                                                                                                                                                                                                                                                                                                                                                                                                                                                                                                                                                              
E|----------------------------------------|--------------------------------------|
B|--2-----2--x--x--2-----x--x--x--2--x--x-|4-----4--x--x--4-----x--x--x--4--x--x-|
G|--2-----2--x--x--2-----x--x--x--2--x--x-|4-----4--x--x--4-----x--x--x--4--x--x-|
D|--4-----4--x--x--4-----x--x--x--4--x--x-|6-----6--x--x--6-----x--x--x--6--x--x-|
A|--4-----4--x--x--4-----x--x--x--4--x--x-|6-----6--x--x--6-----x--x--x--6--x--x-|
E|--2-----2--x--x--2-----x--x--x--2--x--x-|4-----4--x--x--4-----x--x--x--4--x--x-|

    
                                                                                                                                                                                                                                                                                                                                                                                                                                                                                                                                                                                                                                                                                                                                                                                                                                                                                                                                                                                                                                                                                                                                                                                              
E|----------------------------------------|-----------------------------------|
B|--2-----2--x--x--2-----x--x--x--2--x--x-|4-----4--x--x--4-----x--x--x--4----|
G|--2-----2--x--x--2-----x--x--x--2--x--x-|4-----4--x--x--4-----x--x--x--4----|
D|--4-----4--x--x--4-----x--x--x--4--x--x-|6-----6--x--x--6-----x--x--x--6----|
A|--4-----4--x--x--4-----x--x--x--4--x--x-|6-----6--x--x--6-----x--x--x--6----|
E|--2-----2--x--x--2-----x--x--x--2--x--x-|4-----4--x--x--4-----x--x--x--4----|

    
                                                                                                                                                                                                                                                                                                                                                                                                                                                                                                                                                                                                                                                                                                                                                                                                                                                                                                                                                                                                                                                                                                                                                                                              
E|-------------------------------------|--------------------------------------|
B|--5--x--x--5--x--x--5--x--x--5--x--x-|5-----5--x--x--5-----x--x--x--5--x--x-|
G|--6--x--x--6--x--x--6--x--x--6--x--x-|6-----6--x--x--6-----x--x--x--6--x--x-|
D|--7--x--x--7--x--x--7--x--x--7--x--x-|6-----6--x--x--6-----x--x--x--6--x--x-|
A|--7--x--x--7--x--x--7--x--x--7--x--x-|4-----4--x--x--4-----x--x--x--4--x--x-|
E|--5--x--x--5--x--x--5--x--x--5--x--x-|--------------------------------------|

    
                                                                                                                                                                                                                                                                                                                                                                                                                                                                                                                                                                                                                                                                                                                                                                                                                                                                                                                                                                                                                                                                                                                                                                                              
E|----------------------------------------|--------------------------------------|
B|--2-----2--x--x--2-----x--x--x--2--x--x-|4-----4--x--x--4-----x--x--x--4--x--x-|
G|--2-----2--x--x--2-----x--x--x--2--x--x-|4-----4--x--x--4-----x--x--x--4--x--x-|
D|--4-----4--x--x--4-----x--x--x--4--x--x-|6-----6--x--x--6-----x--x--x--6--x--x-|
A|--4-----4--x--x--4-----x--x--x--4--x--x-|6-----6--x--x--6-----x--x--x--6--x--x-|
E|--2-----2--x--x--2-----x--x--x--2--x--x-|4-----4--x--x--4-----x--x--x--4--x--x-|

    
                                                                                                                                                                                                                                                                                                                                                                                                                                                                                                                                                                                                                                                                                                                                                                                                                                                                                                                                                                                                                                                                                                                                                                                              
E|----------------------------------------|--------------------------------------|
B|--2-----2--x--x--2-----x--x--x--2--x--x-|4-----4--x--x--4-----x--x--x--4--x--x-|
G|--2-----2--x--x--2-----x--x--x--2--x--x-|4-----4--x--x--4-----x--x--x--4--x--x-|
D|--4-----4--x--x--4-----x--x--x--4--x--x-|6-----6--x--x--6-----x--x--x--6--x--x-|
A|--4-----4--x--x--4-----x--x--x--4--x--x-|6-----6--x--x--6-----x--x--x--6--x--x-|
E|--2-----2--x--x--2-----x--x--x--2--x--x-|4-----4--x--x--4-----x--x--x--4--x--x-|

    
                                                                                                                                                                                                                                                                                                                                                                                                                                                                                                                                                                                                                                                                                                                                                                                                                                                                                                                                                                                                                                                                                                                                                                                              
E|----------------------------------------|-----------------------|
B|--2-----2--x--x--2-----x--x--x--2--x--x-|4--4--4--4--4--4--4--4-|
G|--2-----2--x--x--2-----x--x--x--2--x--x-|7--7--7--7--7--7--7--7-|
D|--4-----4--x--x--4-----x--x--x--4--x--x-|6--6--6--6--6--6--6--6-|
A|--4-----4--x--x--4-----x--x--x--4--x--x-|6--6--6--6--6--6--6--6-|
E|--2-----2--x--x--2-----x--x--x--2--x--x-|4--4--4--4--4--4--4--4-|

    
    C                                                                                                                                                                                                                                                                                                                                                                                                                                                                                                                                                                                             
E|-------------------------------|
B|--5-----5-----5--x--5--5--5----|
G|--6-----6-----6--x--6--6--6----|
D|--7-----7-----7--x--7--7--7----|
A|--7-----7-----7--x--7--7--7----|
E|--5-----5-----5--x--5--5--5----|

    
                                                                                                                                                                                                                                                                                                                                                                                                                                                                                                                                                                                                                                                                                                                                                                                                                                                                                                                                                                                                                                                                                                                                                                                              
E|-------------------------------|-----------------------------|
B|--4-----4-----4--x--4--4--4----|5-----5-----5--x--5--5--5----|
G|--4-----4-----4--x--4--4--4----|6-----6-----6--x--6--6--6----|
D|--4-----4-----4--x--4--4--4----|6-----6-----6--x--6--6--6----|
A|--2-----2-----2--x--2--2--2----|4-----4-----4--x--4--4--4----|
E|-------------------------------|-----------------------------|

    
                                                                                                                                                                                                                                                                                                                                                                                                                                                                                                                                                                                                                                                                                                                                                                                                                                                                                                                                                                                                                                                                                                                                                                                              
E|-------------------------------|-----------------------------|
B|--7-----7-----7--x--7--7--7----|5-----5-----5--x--5--5--5----|
G|--7-----7-----7--x--7--7--7----|6-----6-----6--x--6--6--6----|
D|--7-----7-----7--x--7--7--7----|7-----7-----7--x--7--7--7----|
A|--5-----5-----5--x--5--5--5----|7-----7-----7--x--7--7--7----|
E|-------------------------------|5-----5-----5--x--5--5--5----|

    
                                                                                                                                                                                                                                                                                                                                                                                                                                                                                                                                                                                                                                                                                                                                                                                                                                                                                                                                                                                                                                                                                                                                                                                              
E|-------------------------------|-----------------------------|
B|--4-----4-----4--x--4--4--4----|5-----5-----5--x--5--5--5----|
G|--4-----4-----4--x--4--4--4----|6-----6-----6--x--6--6--6----|
D|--4-----4-----4--x--4--4--4----|6-----6-----6--x--6--6--6----|
A|--2-----2-----2--x--2--2--2----|4-----4-----4--x--4--4--4----|
E|-------------------------------|-----------------------------|

    
                                                                                                                                                                                                                                                                                                                                                                                                                                                                                                                                                                                                                                                                                                                                                                                                                                                                                                                                                                                                                                                                                                                                                                                              
E|-------------------------------|-----------------------------|
B|--7-----7-----7--x--7--7--7----|5-----5-----5--x--5--5--5----|
G|--7-----7-----7--x--7--7--7----|6-----6-----6--x--6--6--6----|
D|--7-----7-----7--x--7--7--7----|7-----7-----7--x--7--7--7----|
A|--5-----5-----5--x--5--5--5----|7-----7-----7--x--7--7--7----|
E|-------------------------------|5-----5-----5--x--5--5--5----|

    
                                                                                                                                                                                                                                                                                                                                                                                                                                                                                                                                                                                                                                                                                                                                                                                                                                                                                                                                                                                                                                                                                                                                                                                              
E|-------------------------------|-----------------------------|
B|--4-----4-----4--x--4--4--4----|5-----5-----5--x--5--5--5----|
G|--4-----4-----4--x--4--4--4----|6-----6-----6--x--6--6--6----|
D|--4-----4-----4--x--4--4--4----|6-----6-----6--x--6--6--6----|
A|--2-----2-----2--x--2--2--2----|4-----4-----4--x--4--4--4----|
E|-------------------------------|-----------------------------|

    
                                                                                                                                                                                                                                                                                                                                                                                                                                                                                                                                                                                                                                                                                                                                                                                                                                                                                                                                                                                                                                                                                                                                                                                              
E|-------------------------------|-----------------------------|
B|--7-----7-----7--x--7--7--7----|5-----5-----5--x--5--5--5----|
G|--7-----7-----7--x--7--7--7----|6-----6-----6--x--6--6--6----|
D|--7-----7-----7--x--7--7--7----|7-----7-----7--x--7--7--7----|
A|--5-----5-----5--x--5--5--5----|7-----7-----7--x--7--7--7----|
E|-------------------------------|5-----5-----5--x--5--5--5----|

    
                                                                                                                                                                                                                                                                                                                                                                                                                                                                                                                                                                                                 
E|-------------------------------|
B|--4-----4-----4--x--4--4--4----|
G|--4-----4-----4--x--4--4--4----|
D|--4-----4-----4--x--4--4--4----|
A|--2-----2-----2--x--2--2--2----|
E|-------------------------------|

    
                                                                                                                                                                                                                                                                                                                                                                                                                                                                                                                                                                                                                                                                                                                                                                                                                                                                                                                                                                                                                                                                                                                                                                                              
E|-------------------------------|-----------------------------|
B|--5-----5-----5--x--5--5--5----|7-----7-----7--x--7--7--7----|
G|--6-----6-----6--x--6--6--6----|7-----7-----7--x--7--7--7----|
D|--6-----6-----6--x--6--6--6----|7-----7-----7--x--7--7--7----|
A|--4-----4-----4--x--4--4--4----|5-----5-----5--x--5--5--5----|
E|-------------------------------|-----------------------------|

    
                                                                                                                                                                                                                                                                                                                                                                                                                                                                                                                                                                                                                                                                                                                                                                                                                                                                                                                                                                                                                                                                                                                                                                                              
E|-------------------------------|-----------------------------|
B|--7-----7-----7--x--7--7--7----|5-----5-----5--x--5--5--5----|
G|--7-----7-----7--x--7--7--7----|6-----6-----6--x--6--6--6----|
D|--7-----7-----7--x--7--7--7----|7-----7-----7--x--7--7--7----|
A|--5-----5-----5--x--5--5--5----|7-----7-----7--x--7--7--7----|
E|-------------------------------|5-----5-----5--x--5--5--5----|

    
                                                                                                                                                                                                                                                                                                                                                                                                                                                                                                                                                                                                                                                                                                                                                                                                                                                                                                                                                                                                                                                                                                                                                                                              
E|-------------------------------|-----------------------------|
B|--4-----4-----4--x--4--4--4----|5-----5-----5--x--5--5--5----|
G|--4-----4-----4--x--4--4--4----|6-----6-----6--x--6--6--6----|
D|--4-----4-----4--x--4--4--4----|6-----6-----6--x--6--6--6----|
A|--2-----2-----2--x--2--2--2----|4-----4-----4--x--4--4--4----|
E|-------------------------------|-----------------------------|

    
                                                                                                                                                                                                                                                                                                                                                                                                                                                                                                                                                                                                                                                                                                                                                                                                                                                                                                                                                                                                                                                                                                                                                                                              
E|-------------------------------|-----------------------------|
B|--7-----7-----7--x--7--7--7----|5-----5-----5--x--5--5--5----|
G|--7-----7-----7--x--7--7--7----|6-----6-----6--x--6--6--6----|
D|--7-----7-----7--x--7--7--7----|7-----7-----7--x--7--7--7----|
A|--5-----5-----5--x--5--5--5----|7-----7-----7--x--7--7--7----|
E|-------------------------------|5-----5-----5--x--5--5--5----|

    
                                                                                                                                                                                                                                                                                                                                                                                                                                                                                                                                                                                                                                                                                                                                                                                                                                                                                                                                                                                                                                                                                                                                                                                              
E|-------------------------------|-----------------------------|
B|--4-----4-----4--x--4--4--4----|5-----5-----5--x--5--5--5----|
G|--4-----4-----4--x--4--4--4----|6-----6-----6--x--6--6--6----|
D|--4-----4-----4--x--4--4--4----|6-----6-----6--x--6--6--6----|
A|--2-----2-----2--x--2--2--2----|4-----4-----4--x--4--4--4----|
E|-------------------------------|-----------------------------|

    
                                                                                                                                                                                                                                                                                                                                                                                                                                                                                                                                                                                                                                                                                                                                                                                                                                                                                                                                                                                                                                                                                                                                                                                              
E|-------------------------------|-----------------------------|
B|--7-----7-----7--x--7--7--7----|-----------------------------|
G|--7-----7-----7--x--7--7--7----|9-----9-----9--x--9--9--9----|
D|--7-----7-----7--x--7--7--7----|9-----9-----9--x--9--9--9----|
A|--5-----5-----5--x--5--5--5----|7-----7-----7--x--7--7--7----|
E|-------------------------------|-----------------------------|

About Public Garden (EP) : " Realism II" was used as the theme for Asahi National Broadcasting Co.'s Sports Spotters show . " Real Public Garden (EP)'s most popular songs include Realism II. It had an affiliation to bands - Public Garden. Its music is influenced by genres - alternative rock , rap rock , punk rock.

tabs and chords, guitar tabs, music transcription, music technology, deep learning, music information retrieval, transcribe into tabs & chords, chordify, music renditions, songsterr, reverbnation, tabulature, bollywood chords, ultimate guitar, yousician, guitar lessons, acoustic guitar, electric guitar, guitar tuner, 911 tabs