Guitar Tabs for Ab Mujhe Raat Din

(/) Slide Up  (\) Slide Down  (h) Hammer On  (p) Pull Off  (b) Bend (r) Release (v) Vibrato (x) Muted

Tabs & Chords
BPM : 98.0
Check Track 2 for Chord Positions 

    Gm             D           F              A#       Gm                               D        
E|-----------------------------------13----------------------------------------------------------
B|-----------------10----------11-------------11-11----------------------------------------------
G|-----------12-------12-11-------------10-------------------0-----0--------0--0-----------------
D|--12----12----------------------------------------10-12----------------------------------------
A|-----------------------------------------------------------------------------------13-12----12-
E|-----------------------------------------------------------------------14-------14-------------

                         Gm                                                 D                 
E|--------------------------------------------------------------------------------------------
B|--------------------------------------------------------------------------------------------
G|-----------0--0-----------0-----0-----0-----0--0-----0--------0--0--0-----------------------
D|--------------------------------------------------------------------------------------------
A|--12-------------12----------------------------------------------------13-12-13-12----12-12-
E|--------14----------14-14-------------------------------14-14-------------------------------

                         Gm                               
E|--------------------------------------------------------
B|--------------------------------------------------------
G|--------0--0--0--0--------0--0--0-----0--0-----------0--
D|--------------------------------------------------------
A|--12----------------------------------------------------
E|--------------------14-14----------------------14-------

Guitar Tabs for Ab Mujhe Raat Din






    Gm             D           F              A#       Gm                               D        
E|--3--------------2-----------1--------------1--------3--------------------------------2--------
B|--3--------------3-----------1--------------3--------3--------------------------------3--------
G|--3--------------2-----------2--------------3--------3--------------------------------2--------
D|--5--------------0-----------3--------------3--------5--------------------------------0--------
A|--5--------------------------3--------------1--------5-----------------------------------------
E|--3--------------------------1-----------------------3-----------------------------------------

                         Gm                                                 D                 
E|-----------------------3--------------------------------------------------2-----------------
B|-----------------------3--------------------------------------------------3-----------------
G|-----------------------3--------------------------------------------------2-----------------
D|-----------------------5--------------------------------------------------0-----------------
A|-----------------------5--------------------------------------------------------------------
E|-----------------------3--------------------------------------------------------------------

                         Gm                               
E|-----------------------3--------------------------------
B|-----------------------3--------------------------------
G|-----------------------3--------------------------------
D|-----------------------5--------------------------------
A|-----------------------5--------------------------------
E|-----------------------3--------------------------------

tabs and chords, guitar tabs, music transcription, music technology, deep learning, music information retrieval, transcribe into tabs & chords, chordify, music renditions, songsterr, reverbnation, tabulature, bollywood chords, ultimate guitar, yousician, guitar lessons, acoustic guitar, electric guitar, guitar tuner, 911 tabs