Guitar Tabs for Aankhon Mein Aansoon - Ek Haseena Thi Ek Deewana Tha Tabs

(/) Slide Up  (\) Slide Down  (h) Hammer On  (p) Pull Off  (b) Bend (r) Release (v) Vibrato

Tabs for Song : Aankhon Mein Aansoo Leke 

Aankhon Mein Aansoo Leke Hothon Se Muskuraayein
E|-----2--------------------------------------
B|--2-----3--2-----3--2--2--2--3--2-----------
G|--------------4--------------------2--4--4--
D|--------------------------------------------
A|--------------------------------------------
E|--------------------------------------------

Hum Jaise Jee Rahe Hain Koi Jee Ke To Bataye 
E|-----------------------------------------------
B|-----------------------------------------------
G|-----------2--1--2--4--2--1--2--4--2--1--------
D|--2--2--4--------------------------------4--2--
A|-----------------------------------------------
E|-----------------------------------------------

Chorus 
E|-----5--4--2-----2--4--2--2-----2--4--2-----4--
B|--2-----------5--------------------------5-----
G|-----------------------------------------------
D|-----------------------------------------------
A|-----------------------------------------------
E|-----------------------------------------------

Chorus 
E|-----5--4--2-----2--4--2--2--
B|--2-----------5--------------
G|-----------------------------
D|-----------------------------
A|-----------------------------
E|-----------------------------

Jo Toot Ke Na Toote Koi Aisa Dil Dikhaayein 
E|--------2--------------------------------------
B|--2--------3--2-----3--2--2--2--3--2-----------
G|-----------------4--------------------2--4--4--
D|-----------------------------------------------
A|-----------------------------------------------
E|-----------------------------------------------

Hum Jaise Jee Rahe Hain Koi Jee Ke To Bataye 
E|-----------------------------------------------
B|-----------------------------------------------
G|-----------2--1--2--4--2--1--2--4--2--1--------
D|--2--2--4--------------------------------4--2--
A|-----------------------------------------------
E|-----------------------------------------------

Chorus
E|-----5--4--2--2-----2--4-----2--4--2--4--
B|--2-----------------------5--------------
G|-----------------------------------------
D|-----------------------------------------
A|-----------------------------------------
E|-----------------------------------------

Chorus
E|-----5--4--2--2-----2--4-----2--5--4--2--
B|--2-----------------------5--------------
G|-----------------------------------------
D|-----------------------------------------
A|-----------------------------------------
E|-----------------------------------------
tabs and chords, guitar tabs, music transcription, music technology, deep learning, music information retrieval, transcribe into tabs & chords, chordify, music renditions, songsterr, reverbnation, tabulature, bollywood chords, ultimate guitar, yousician, guitar lessons, acoustic guitar, electric guitar, guitar tuner, 911 tabs