Guitar Tabs for Aankhon Me Tera He Chehra

Maana ke tum saath nahi ho, mere dil ke paas nahi ho
E|---5/8--7--7--7--8-----7---7h-8p7-----------7--8--10-8-----7---7h-8p7--7-----
B|-----------------------------------10----10----------------------------------
G|-----------------------------------------------------------------------------
D|-----------------------------------------------------------------------------
A|-----------------------------------------------------------------------------
E|-----------------------------------------------------------------------------

Maine ye mana
E|-----------------------------------
B|--10----10----10/12----8---8/10----
G|-----------------------------------
D|-----------------------------------
A|-----------------------------------
E|-----------------------------------

Phir bhi aas lagi he dil mein,
Tum aao gi mujhse milne
E|-----------------------------------------------------------------------------------------
B|---8/10-10----8-----8--10----8---7h-8p7------8/10-10----8--8--8--10----8---7h-8p7--------
G|-----------------------------------------9-----------------------------------------9-----
D|-----------------------------------------------------------------------------------------
A|-----------------------------------------------------------------------------------------
E|-----------------------------------------------------------------------------------------

Chupke chupke kah de dil me
Deewana.. mera deewana
E|-----------------------------------------------------------------------------------------------
B|---8/10-10----8--8--8--10----8---7h-8p7------8/10----10----8------5/8--8--10-----8h10p8--8-----
G|-----------------------------------------9-----------------------------------------------------
D|-----------------------------------------------------------------------------------------------
A|-----------------------------------------------------------------------------------------------
E|-----------------------------------------------------------------------------------------------

Phir se aayengi wo raate,
Wo meethi meethi si baate,
E|-----------------------------------------------------------------------------------
B|--10/12-12-10-10-10-13-12----12-12----12----12-12-10----10-10-13----12----12-12----
G|-----------------------------------------------------------------------------------
D|-----------------------------------------------------------------------------------
A|-----------------------------------------------------------------------------------
E|-----------------------------------------------------------------------------------

Karti thi... jo deewana
E|-----------------------------7--------------
B|--12----10-10----10-----8/10----8---8/10----
G|--------------------------------------------
D|--------------------------------------------
A|--------------------------------------------
E|--------------------------------------------

Aankhon mein tera hi chehra
Dhadkan mein teri hi yaadein
E|-----------------------------------------------------------------------------
B|---8/10-10-8-----8--10-8---7h-8p7------8/10-10-8-----8--10-8---7h-8p7--------
G|-----------------------------------9-----------------------------------9-----
D|-----------------------------------------------------------------------------
A|-----------------------------------------------------------------------------
E|-----------------------------------------------------------------------------

Karti hai, Deewana
E|--------------------------------------------
B|---8/10-10----8------5/8--8--10--8h10p8--8--
G|--------------------------------------------
D|--------------------------------------------
A|--------------------------------------------
E|--------------------------------------------
tabs and chords, guitar tabs, music transcription, music technology, deep learning, music information retrieval, transcribe into tabs & chords, chordify, music renditions, songsterr, reverbnation, tabulature, bollywood chords, ultimate guitar, yousician, guitar lessons, acoustic guitar, electric guitar, guitar tuner, 911 tabs