Guitar Tabs for Aankh Hai Bhari Bhari

Guitar Intro 1
E|-----------------------------------------------------------------------
B|-----------3--0-----------------------------3--0-----------------------
G|--------0--------2------2h-4p2-----------0--------2------2h-4p2--------
D|-----0--------------5-----------5-----0--------------5-----------5-----
A|-----------------------------------------------------------------------
E|--3--------------------------------3-----------------------------------


E|-----------------------------------------------------------------------------------
B|--------------------------------------------3--0-----------------------------------
G|-----------------2-----------------------0--------2------2h-4p2------2h-4p2--------
D|--5--4--2-----2-----2-----------------0--------------5-----------5-----------5-----
A|-----------3-----------5--3--5--3--------------------------------------------------
E|-----------------------------------3-----------------------------------------------


Synth Intro 1
E|---5/7------5/7-----7--10-8--7--------8--7------7h-8p7--------
B|--------------------------------10-10-------10----------10----
G|--------7--------7--------------------------------------------
D|--------------------------------------------------------------
A|--------------------------------------------------------------
E|--------------------------------------------------------------


E|-----------10-9--7-----7--10--7h-8p7--------------------7-----------
B|---5/7--------------10----------------10-7--8--8--8--8-----10-8-----
G|--------7-----------------------------------------------------------
D|--------------------------------------------------------------------
A|--------------------------------------------------------------------
E|--------------------------------------------------------------------

Guitar Lead 1
E|-----------------------------------------------------------------
B|-----------------------------------------------------------------
G|---2/4--------4--4-----4--7--5--4-----------5--4------4h-5p4-----
D|-----------------------------------7-----7--------7-----------7--
A|--------5-----------5--------------------------------------------
E|-----------------------------------------------------------------


E|--------------------------------------------------------------------------------
B|--------------------------------------------------------------------------------
G|-----------7--6--4-----4--7---4h-5p4--------------------4-----------------------
D|---2/4--------------7-----------------7--4--5--5--5--5-----7--5---4h-5p4--------
A|--------5-----------------------------------------------------------------7--5--
E|--------------------------------------------------------------------------------

Guitar Intro 1
E|-----------------------------------------------------------------------
B|-----------3--0-----------------------------3--0-----------------------
G|--------0--------2------2h-4p2-----------0--------2------2h-4p2--------
D|-----0--------------5-----------5-----0--------------5-----------5-----
A|-----------------------------------------------------------------------
E|--3--------------------------------3-----------------------------------

Aankh hai bhari bhari...
E|--------------------------------------------------------------------------------------
B|--------------------3-----------------------------------------------------------------
G|-----------2--4--------4-----2---2h-4p2--------2-----2--2------4/5--4---2h-4p2--2-----
D|---4/5-----------------------------------5--------------------------------------------
A|--------------------------------------------------------------------------------------
E|--------------------------------------------------------------------------------------

Mushkurane ki baat...
E|-----------------------------------------------------------------------------
B|-----------3-----------------------------------------------------------------
G|-----2--4--------4--2---------2h-4p2-----------2--4--4---4/7--4-----2--------
D|--5--------------------5--2-----------5--5-----------------------------5-----
A|-----------------------------------------------------------------------------
E|-----------------------------------------------------------------------------

zindegi kafa kafa...
E|--------------------------------------------------------------------------------
B|--------------------3-----------------------------------------------------------
G|-----------2--4--------4-----2---2h-4p2-----4-----2--2------4/5--4---2h-4p2--2--
D|---4/5-----------------------------------5--------------------------------------
A|--------------------------------------------------------------------------------
E|--------------------------------------------------------------------------------

dil lagane ki baat...
E|--------------------------------------------------
B|--------------3-----------------------------------
G|--------2--4--------4--2---------2h-4p2-----------
D|-----5--------------------5--2-----------5--5-----
A|--------------------------------------------------
E|--------------------------------------------------

Guitar Lead 2
E|-----------------------------------------------------------------------------------------------------
B|--------------------------------------------------------------------------------------5--------------
G|-----------------4--7--4-----4-----------------------------------------------4-----5-----5--4--5-----
D|--5--5-----7--------------7--------5--5-----4---------4h-5p4--------7--7-----------------------------
A|--------------------------------------------------7-----------7--------------------------------------
E|-----------------------------------------------------------------------------------------------------


E|-----------------------------------------------------------
B|-----------5---------5h-7p5--------------------------------
G|--5--5-----------7-----------7-----7--5--4---5/-6\5--4-----
D|-----------------------------------------------------------
A|-----------------------------------------------------------
E|-----------------------------------------------------------

Lead 3
E|-----------7--------------7--------------------------------------------
B|--8--7--8-----8-----7--8-----8--7-----------8--------------------------
G|-----------------------------------9--8--9-----5-----9--8--9-----5-----
D|-----------------------------------------------------------------------
A|-----------------------------------------------------------------------
E|-----------------------------------------------------------------------


E|--------------------------------------------------------
B|-----------5---7/-8\7--5--------------5---7/-8\7--5-----
G|--7--4--7-----------------7--7--4--7-----------------7--
D|--------------------------------------------------------
A|--------------------------------------------------------
E|--------------------------------------------------------


E|-----------------------------------------
B|-----------------------------------------
G|--5--7--5--7--4--------5--7--5--7--4-----
D|--------------------5--------------------
A|-----------------------------------------
E|-----------------------------------------

Mere haalat aise...
E|--3--3------2h-3p2--------------------------------------------------------------------------
B|--------------------5-----3--5------3h-5p3-----------------3--5--5-----3--5---3h-5p3--3-----
G|--------------------------------------------5-----5--5--------------------------------------
D|--------------------------------------------------------------------------------------------
A|--------------------------------------------------------------------------------------------
E|--------------------------------------------------------------------------------------------

filler
E|-----------------------------------------
B|--------3-----------------------3--------
G|--4--5------4/-5\4--2--------------4-----
D|-----------------------5--2--5-----------
A|-----------------------------------------
E|-----------------------------------------

Mere haalat aise...
E|--3--3------2h-3p2--------------------------------------------------------------------------
B|--------------------5-----3--5------3h-5p3-----------------3--5--5-----3--5---3h-5p3--3-----
G|--------------------------------------------5-----5--5--------------------------------------
D|--------------------------------------------------------------------------------------------
A|--------------------------------------------------------------------------------------------
E|--------------------------------------------------------------------------------------------

tadapta hun...
E|--3--3------2h-3p2--------------------------------------------------------------------------
B|--------------------5-----3--5------3h-5p3-----------------3--5--5-----3--5---3h-5p3--3-----
G|--------------------------------------------5-----5--5--------------------------------------
D|--------------------------------------------------------------------------------------------
A|--------------------------------------------------------------------------------------------
E|--------------------------------------------------------------------------------------------

filler
E|-----------------------------------------
B|-----------------------------------------
G|-----2--4-----2--------------------------
D|--5--------------5---4/-5\4--2--0--5-----
A|-----------------------------------------
E|-----------------------------------------

Aankh hai bhari bhari...
E|-----------------------------------------------------------------------------------------
B|--------------------3--------------------------------------------------------------------
G|-----------2--4--------4-----2---2h-4p2-----------2-----2--2------4/5--4---2h-4p2--2-----
D|---4/5--------------------------------------5--------------------------------------------
A|-----------------------------------------------------------------------------------------
E|-----------------------------------------------------------------------------------------

Mushkurane ki baat...
E|--------------------------------------------------------------------
B|-----------3--------------------------------------------------------
G|-----2--4-----4--2---------2h-4p2-----------2--4--4---4/7--4--2-----
D|--5-----------------5--2-----------5--5--------------------------5--
A|--------------------------------------------------------------------
E|--------------------------------------------------------------------

end solo
E|-----------------------------------------------------------
B|-----------------------------------------------------------
G|-----------------------------------------------------------
D|---3/5--5--5-----7--7---7/9------3/5--5--5--7--5---4\2-----
A|-----------------------------------------------------------
E|-----------------------------------------------------------


E|-----------------------------------------------------------
B|-----------------------------------------------------------
G|-----------------4--4---4/5------5/7--7--7--5--------------
D|---5/7-----7--7--------------------------------7---7/9-----
A|-----------------------------------------------------------
E|-----------------------------------------------------------


tabs and chords, guitar tabs, music transcription, music technology, deep learning, music information retrieval, transcribe into tabs & chords, chordify, music renditions, songsterr, reverbnation, tabulature, bollywood chords, ultimate guitar, yousician, guitar lessons, acoustic guitar, electric guitar, guitar tuner, 911 tabs