Guitar Tabs for Aadat Jal Intro Tabs

Tabs for Intro for Aadat by Jal

Intro

E|--------------------------------------------------
B|--------------4--------4--------4--------4--------
G|--------6--------6--------6--------6--------6-----
D|-----6-----6--------6--------6--------6--------6--
A|--4-----------------------------------------------
E|--------------------------------------------------


E|--------------------------------------------------
B|--------------4--------4--------4--------4--------
G|--------6--------6--------6--------6--------6-----
D|-----6-----6--------6--------6--------6--------6--
A|--4-----------------------------------------------
E|--------------------------------------------------

E|--------------------------------------------------
B|--------------5--------5--------5--------5--------
G|--------6--------6--------6--------6--------6-----
D|-----6-----6--------6--------6--------6--------6--
A|--4-----------------------------------------------
E|--------------------------------------------------

E|--------------------------------------------------
B|--------------4--------4--------4--------4--------
G|--------6--------6--------6--------6--------6-----
D|-----6-----6--------6--------6--------6--------6--
A|--4-----------------------------------------------
E|--------------------------------------------------




tabs and chords, guitar tabs, music contests, music covers, songsterr, reverbnation, renditions, tabulature, bollywood chords, ultimate guitar, yousician, guitar lessons, torrins, fender, gibson, acoustic guitar, electric guitar, youtube covers, gootar, guitar tuner, A-Z tabs, 911 tabs