Guitar Tabs for Aadat - Jal - Atif Aslam Tabs Easy

(/) Slide Up  (\) Slide Down  (h) Hammer On  (p) Pull Off  (b) Bend (r) Release (v) Vibrato (x) Muted

Tabs for Song : 
BPM : 200



e|--------------------------------------------------------------------------------------
b|--------------------4-----------------4-----------------4--------------4--------------
g|--------6-----------------6-----------------6-----------------6-----------6-----------
d|-----6--------6-----------------6-----------------6--------------6--------------6-----
a|--4-----------------------------------------------------------------------------------
e|--------------------------------------------------------------------------------------


e|--------------------------------------------------------------------------------------------
b|--------------------5-----------------5-----------------5-----------------5-----------------
g|--------6-----------------6-----------------6-----------------6-----------------6-----------
d|-----6--------------------------------------------6-----------------------------------------
a|--0-----------0-----------------0-----------------------------------0-----------------0-----
e|--------------------------------------------------------------------------------------------


e|--------------------0--------------------------------0--------------------------------0-----------------0---
b|--2-----------2--------2-----------2-----------2--------2-----------------0--------------------0--------0--
g|--------4--------------------4-----------4--------------------4--------2--------2-----------2-----------2--
D|-----------------------------------------------------------------------------------------------------------
A|-----------------------------------------------------------------------------------------------------------
E|-----------------------------------------------------------------------------------------------------------


e|--4--5--4--4--4--4--4-----------------------------------------------------------
b|--------------------------7--5--4--4--4--4--4--4--5--4--------5---5/7--5--4-----
g|-----------------------------------------------------------6--------------------
D|--------------------------------------------------------------------------------
A|--------------------------------------------------------------------------------
E|--------------------------------------------------------------------------------


e|--4--5--4--4--4--4--7--9--7---9/11--9\7--7--7---7\5---5/7--5--
B|--------------------------------------------------------------
G|--------------------------------------------------------------
D|--------------------------------------------------------------
A|--------------------------------------------------------------
E|--------------------------------------------------------------

e|--------------4---------------7p4--------------------4------------7p4-----
b|-----5--------------------------------------5-----------------------------
g|--6-----6-----------6-----------------6--------6-----------6--------------
D|--------------------------------------------------------------------------
A|--------------------------------------------------------------------------
E|--------------------------------------------------------------------------



e|--------------------------4--------------5--------
b|--------------7-----------------------------------
g|-----6-----------6--------------6-----------6-----
d|--7-----7-----------7--------------7-----------7--
A|--------------------------------------------------
E|--------------------------------------------------



e|--------------4---------------7p4--------------------4------------7p4-----
b|-----5--------------------------------------5-----------------------------
g|--6-----6-----------6-----------------6--------6-----------6--------------
D|--------------------------------------------------------------------------
A|--------------------------------------------------------------------------
E|--------------------------------------------------------------------------



e|-----------------------------------
b|--------------7-----------------7--
g|-----6-----------6--------------8--
d|--7-----7-----------7-----------9--
A|-----------------------------------
E|-----------------------------------



e|--4--5--4--4--4--4--4-----------------------------------------------------------
b|--------------------------7--5--4--4--4--4--4--4--5--4--------5---5/7--5--4-----
g|-----------------------------------------------------------6--------------------
D|--------------------------------------------------------------------------------
A|--------------------------------------------------------------------------------
E|--------------------------------------------------------------------------------


e|--4--5--4--4--4--4--7--9--7---9/11--9\7--7--7---7\5---5/7--5--
B|--------------------------------------------------------------
G|--------------------------------------------------------------
D|--------------------------------------------------------------
A|--------------------------------------------------------------
E|--------------------------------------------------------------




























Song lyrics here 
E|--
B|--
G|--
D|--
A|--
E|--

Song lyrics here 
E|--
B|--
G|--
D|--
A|--
E|--

Use manual mode to free up cursor. Paste any tab in acousterr tab maker and we'll play it !!!
tabs and chords, guitar tabs, music transcription, music technology, deep learning, music information retrieval, transcribe into tabs & chords, chordify, music renditions, songsterr, reverbnation, tabulature, bollywood chords, ultimate guitar, yousician, guitar lessons, acoustic guitar, electric guitar, guitar tuner, 911 tabs