Bass Tabs for Aa

Fingerstyle part
G|--------------------------------------------------------------------------------------------------------------------------------------------------
D|--------------------------------------------------------------------------------------------------------------------------------------------------
A|-----------8--7--5-----------6--5--3-----------8--7--5-----------6--5--3-----------8--7--5-----------6--5--3--------------------------------------
E|--0--0--0-----------0--0--0-----------0--0--0-----------0--0--0-----------0--0--0-----------0--0--0-----------0--0--0--0--0--0--0--0--0--0--0--0--
Slap part
G|--------------------------------------------------------------------------------------
D|--------------------------------------------------------------------------------------
A|-----------4-----------3-----------1--1--0-----------4-----------3-----------1--1--0--
E|--0--0--0-----0--0--0-----0--0--0-----------0--0--0-----0--0--0-----0--0--0-----------
Slap part 2
G|--------------------------------------------------------------------------------------
D|--------------------------------------------------------------------------------------
A|-----------1-----------2-----------3--4--3-----------1-----------2-----------3--4--3--
E|--0--0--0-----0--0--0-----0--0--0-----------0--0--0-----0--0--0-----0--0--0-----------

G|--------------------------------------------------------------------------------------
D|-----------2-----------3-----------4--5--4-----------2-----------3-----------4--5--4--
A|--------------------------------------------------------------------------------------
E|--0--0--0-----0--0--0-----0--0--0-----------0--0--0-----0--0--0-----0--0--0-----------
Slap part 3
G|--------------------------------------------------------------------------
D|-----------2--------------2--------------2--------------4--------------4--
A|--------------------------------------------------------------------------
E|--0--0--0--------0--0--0--------0--0--0--------2--2--2--------2--2--2-----


tabs and chords, guitar tabs, music transcription, music technology, deep learning, music information retrieval, transcribe into tabs & chords, chordify, music renditions, songsterr, reverbnation, tabulature, bollywood chords, ultimate guitar, yousician, guitar lessons, acoustic guitar, electric guitar, guitar tuner, 911 tabs