Ukulele Tabs for A Thousand Miles

(/) Slide Up  (\) Slide Down  (h) Hammer On  (p) Pull Off  (b) Bend (r) Release (v) Vibrato (x) Muted

Tabs for Song : 

Song lyrics here
A|-----3-----3--2-----2--------------
E|-----------------------3--0--------
C|--0-----0--------0-----------2--0--
G|-----------------------------------

A|--3-----3--2-----2--------------------------
E|--------------------3-----3-----0--1--0-----
C|-----0--------0--------0-----0-----------2--
G|--------------------------------------------

A|--3-----3--2-----2--------------------------------------------------
E|--------------------3-----3-----0--1--0-----0--------0--------3-----
C|-----0--------0--------0-----0-----------2-----2--0-----2--0-----2--
G|--------------------------------------------------------------------

Song lyrics here
A|--
E|--
C|--
G|--

Paste any tab in acousterr's tab maker and we'll play it !!!
Now supports capo and sound effects for vibrato/pull-off/hammer/bends/mutes etc !!! Checkout help section
tabs and chords, guitar tabs, music transcription, music technology, deep learning, music information retrieval, transcribe into tabs & chords, chordify, music renditions, songsterr, reverbnation, tabulature, bollywood chords, ultimate guitar, yousician, guitar lessons, acoustic guitar, electric guitar, guitar tuner, 911 tabs