Guitar Tabs for A Tender Feeling - Sword Art Online

Sword Art Online: A Tender Feeling
Composed by Yuki Kajiura
Originally Tabbed by Tab Sheet Music
YouTube Link to Original Creator: https://www.youtube.com/channel/UCi5EIu8SCZ0DV-Gdui4QDiA
E|-----------
B|--------0--
G|-----2-----
D|--2--------
A|-----------
E|-----------

E|-----
B|--2--
G|-----
D|-----
A|-----
E|-----

E|--------0-----
B|-----------0--
G|-----2--------
D|--2-----------
A|--------------
E|--------------

E|-----------0-----
B|-----------------
G|--------1-----2--
D|-----2-----------
A|-----------------
E|-----------------

E|-----------------0--
B|--------------3-----
G|-----------2--------
D|-----4--------------
A|--4-----------------
E|--------------------

E|--2--------5--0--
B|--------3--------
G|-----2-----------
D|-----------------
A|-----------------
E|-----------------

E|-----------------
B|--------2--2--3--
G|------2----------
D|-----------------
A|-----------------
E|-----------------

E|--------------
B|--3--2--0-----
G|-----------2---
D|--------------
A|--------------
E|--------------

E|-----
B|-----
G|--2--
D|-----
A|-----
E|-----

E|--------------
B|-----------0--
G|-----1--2-----
D|--4-----------
A|--------------
E|--------------

E|-----
B|--0--
G|-----
D|-----
A|-----
E|-----

E|-----------0--
B|--0--2--3-----
G|--------------
D|--------------
A|--------------
E|--------------

E|--------
B|--3--2--
G|--------
D|--------
A|--------
E|--------

E|--------------
B|--------------
G|--2-----------
D|-----0--2--4--
A|--------------
E|--------------

E|--------------
B|-----------0--
G|--1-----2-----
D|-----2--------
A|--------------
E|--------------


E|-----0--
B|--2-----
G|--------
D|--------
A|--------
E|--------

E|-----0--
B|--0-----
G|--------
D|--------
A|--------
E|--------

E|-----
B|-----
G|--2--
D|-----
A|-----
E|-----

E|--------0--
B|-----3-----
G|--2--------
D|-----------
A|-----------
E|-----------

E|--2--------5--
B|--------------
G|--------------
D|--------------
A|--------------
E|--------------

E|--0-----
B|-----2--
G|--------
D|--------
A|--------
E|--------



E|-----
B|--3--
G|-----
D|-----
A|-----
E|-----

E|-------------
B|--3--2-0-----
G|----------2--
D|-------------
A|-------------
E|-------------

E|-----
B|-----
G|-----
D|-----
A|--4--
E|-----

E|--------------
B|-----------0--
G|-----1--2-----
D|--4-----------
A|--------------
E|--------------

E|-----
B|--3--
G|-----
D|-----
A|-----
E|-----

E|-----
B|--2--
G|-----
D|-----
A|-----
E|-----

E|-----
B|--0--
G|-----
D|-----
A|-----
E|-----

E|-----
B|-----
G|--2--
D|-----
A|-----
E|-----

E|-----------------------------
B|--------------------------0--
G|-----------------------------
D|-----------------------------
A|-----------------------------
E|-----------------------------

E|-----------
B|--2--0-----
G|--------2--
D|-----------
A|-----------
E|-----------

E|--------
B|--------
G|--1-----
D|-----4--
A|--------
E|--------

E|--------
B|--------
G|--------
D|--4--2--
A|--------
E|--------

E|--------
B|-----0--
G|--2-----
D|--------
A|--------
E|--------

E|-----------
B|--2--0-----
G|--------2--
D|-----------
A|-----------
E|-----------

E|--------
B|--0--4--
G|--------
D|--------
A|--------
E|--------

E|--0--
B|-----
G|-----
D|-----
A|-----
E|-----

E|-----0--5--
B|--3--------
G|-----------
D|------------
A|-----------
E|-----------

E|--10-5--2-----
B|-----------3--
G|--------------
D|--------------
A|--------------
E|--------------

E|-----0--2--
B|--3--------
G|-----------
D|-----------
A|-----------
E|-----------

E|--5--
B|-----
G|-----
D|-----
A|-----
E|-----

E|--7--
B|-----
G|-----
D|-----
A|-----
E|-----

E|--12-
B|-----
G|-----
D|-----
A|-----
E|-----

E|-----------
B|--------0--
G|-----2-----
D|--2--------
A|-----------
E|-----------

E|-----------0--
B|--2-----------
G|--------2-----
D|-----2--------
A|--------------
E|--------------

E|--------0--
B|--0--------
G|-----------
D|-----2-----
A|-----------
E|-----------

E|-----
B|-----
G|--2--
D|-----
A|-----
E|-----

E|--------0--
B|-----3-----
G|--2--------
D|-----------
A|-----------
E|-----------

E|--2--------5--
B|--------3-----
G|-----2--------
D|--------------
A|--------------
E|--------------

E|--0-----------
B|--------2--2--
G|-----2--------
D|--------------
A|--------------
E|--------------

E|-----
B|--3--
G|-----
D|-----
A|-----
E|-----

E|--------------
B|--3--2--0-----
G|-----------2--
D|--------------
A|--------------
E|--------------

E|-----
B|-----
G|--2--
D|-----
A|-----
E|-----

E|--------------
B|-----------0--
G|-----1--2-----
D|--4-----------
A|--------------
E|--------------

E|-----0-----------------------------------0--5--7--9--0--5--
B|--3--------------------------------------------------------
G|-----------------------------------------------------------
D|-----------------------------------------------------------
A|-----------------------------------------------------------
E|-----------------------------------------------------------




tabs and chords, guitar tabs, music contests, music covers, songsterr, reverbnation, renditions, tabulature, bollywood chords, ultimate guitar, yousician, guitar lessons, torrins, fender, gibson, acoustic guitar, electric guitar, youtube covers, gootar, guitar tuner, A-Z tabs, 911 tabs