Guitar Tabs for Cant Stop

CANT STOP:

[Intro]

e|------------------------------|    |--------------------------------|
B|------------------------------|    |--------------------------------|
G|------------------------------|    |--------------------------------|
D|------------------------------| x4 |--------------------------------| x1
A|-5h7---5h7---5h7---5h7---5h7--|    |-5h7---5h7---5h7---5----5h7-----|
E|------------------------------|    |---------------------7----------|

e|------------------------------|
B|------------------------------|
G|------------------------------|
D|------------------------------| x3
A|-5h7---5h7---5h7---5h7---5h7--|
E|------------------------------|

[Verse 1 & 2]
Riff A
e|-------------------------------------------------------------|
B|-------------------------------------------------------------|
G|------7--9---------7--9------------7--9---------7--9---------|
D|--------------------------------0--------0-0-0--------0-0-0--|
A|-7-7--------7-7-7--------7-7-7-------------------------------|
E|-------------------------------------------------------------|

e|-------------------------------------------------------------|
B|-------------------------------------------------------------|
G|----7--9---------7--9------------7--9--------7--9------------|
D|-------------------------------------------------------------| x4
A|-------------------------------------------------------------|
E|-7--------7-7-7--------7-7-7--8-------8-8-8--------8-8-8-----|

[Chorus]
     G
The world I love 
     D
The tears I've dropped 
   Bm
To be part of 
     C
the wave can't stop 
G           D        Bm      C
Ever wonder if it's all for you
     G
The world I love 
      D
The trains I hop 
   Bm
To be part of 
     C
The wave can't stop 
 G                 D         Bm C
Come and tell me when it's time to 



tabs and chords, guitar tabs, music transcription, music technology, deep learning, music information retrieval, transcribe into tabs & chords, chordify, music renditions, songsterr, reverbnation, tabulature, bollywood chords, ultimate guitar, yousician, guitar lessons, acoustic guitar, electric guitar, guitar tuner, 911 tabs