Guitar Tabs for A Hero Out Of Me (lead Guitar)

(/) Slide Up  (\) Slide Down  (h) Hammer On  (p) Pull Off  (b) Bend (r) Release (v) Vibrato (x) Muted

Capo On 1st

Verse 1: *Clean Guitar, Let Each Note Ring*
And all these things that I've seen my friends, 
And all these lost dreams dystopian society,
And everything that I've been through,
Nothing ever seems to help this chaos city,
E|--6--------1--------1--------1--------6--------1--------1--------1--
B|--8--------1--------8--------1--------8--------1--------8--------1--
G|--7--------7--------7--------7--------7--------7--------7--------7--
D|--1--------7--------8--------7--------1--------7--------8--------7--
A|--1--------1--------1--------1--------1--------1--------1--------1--
E|--1--------1--------1--------1--------1--------1--------1--------1--

Transition 1: *Distorted Guitar*
And I finally see what I've got to be,
To make a hero out of me,
E|-----------------------------------------------------------------------------------
B|-----------------------------------------------------------------------------------
G|--8-----8--8-----8--8--8-----8-----8--8-----8--8--8--------------------------------
D|--8-----8--8-----8--8--8-----8-----8--8-----8--8--8-----3-----3--3-----3--3--3-----
A|--6-----6--6-----6--6--6-----6-----6--6-----6--6--6-----3-----3--3-----3--3--3-----
E|--------------------------------------------------------1-----1--1-----1--1--1-----

E|--------------------------------------------------
B|--------------------------------------------------
G|--3-----3--3-----------------8-----8-----8--10-11-
D|--3-----3--3-----3-----3--3--8-----8-----8--10-11-
A|--1-----1--1-----3-----3--3--6-----6-----6--8--9--
E|-----------------1-----1--1-----------------------

Verse 2: *Distorted Guitar, Wait 6 Measures And Come In Before The Vocals*
E|--------------------------------------
B|--------------------------------------
G|--8--8------8/10----7--7------7/10----
D|--8--8------8/10----7--7------7/10----
A|--6--6------6/8-----5--5------5/8-----
E|--------------------------------------
What happened to us we all fell apart,
And now this world has lost its beating heart,
E|-----------------------------------------------------------------------
B|-----------------------------------------------------------------------
G|--8--8------8/10----7--7------7/10----8--8------8/10----7--7------7/10-
D|--8--8------8/10----7--7------7/10----8--8------8/10----7--7------7/10-
A|--6--6------6/8-----5--5------5/8-----6--6------6/8-----5--5------5/8--
E|-----------------------------------------------------------------------
For love to find its way inside,
For us to have clarity I must confide to you,
E|--------------------------------------------------------------------------------------
B|--------------------------------------------------------------------------------------
G|--8--8------8/10----7--7------7/10----8--8------8/10----7--7-----7--7--7--7--7--7--7--
D|--8--8------8/10----7--7------7/10----8--8------8/10----7--7-----7--7--7--7--7--7--7--
A|--6--6------6/8-----5--5------5/8-----6--6------6/8-----5--5-----5--5--5--5--5--5--5--
E|--------------------------------------------------------------------------------------

Transition 2: *Distorted Guitar*
E|--------------------------------------------------------------------------------------------------
B|--------------------------------------------------------------------------------------------------
G|--8--8--8--8--8--8--8--8--8--8--8--8--8--8--8--8--------------------------3--3--3--3--------------
D|--8--8--8--8--8--8--8--8--8--8--8--8--8--8--8--8--3--3--3--3--3--3--3--3--3--3--3--3--3--3--3--3--
A|--6--6--6--6--6--6--6--6--6--6--6--6--6--6--6--6--3--3--3--3--3--3--3--3--1--1--1--1--3--3--3--3--
E|--------------------------------------------------1--1--1--1--1--1--1--1--------------1--1--1--1--

E|-----------------------------
B|-----------------------------
G|--8--8--8--8--8--8--8--10-11-
D|--8--8--8--8--8--8--8--10-11-
A|--6--6--6--6--6--6--6--8--9--
E|-----------------------------

Bridge/Solo: *Distorted Guitar, Begins With Tremelo Picking On A#*
E|--------------------------------------------------------------------------------------------------------------
B|--------------------------------------------------------------------------------------------------------------
G|--------------------------------------------------------------------------------------------------------------
D|--------------------------------------------------------------------------------------------------------------
A|--1--1--1--1--1--1--1--1--1--1--1--1--1--1--1--1--1--1--1--1--1--1--1--1--1--1--1--1--1--1--1--1--1--1--1--1--
E|--------------------------------------------------------------------------------------------------------------

E|--------------------------------------------------------------------------------------
B|--------------------------------------------------------------------------------------
G|--------------------------------------------------------------------------------------
D|--------------------------------------------------------------------------------------
A|--1--1--1--1--1--1--1--1--1--1--1--1--1--1--1--1--1--1--1--1--1--1--1--1--1--1--1--1--
E|--------------------------------------------------------------------------------------

E|--------------------------------------------------------------------------------
B|--------------------------------------------------------------------------------
G|--------------------------------------------------------------------------------
D|--------------------------------------11-------------------------------------13-
A|---1h11h13--1h11h13--1h11h13--1h11h13-----1h11h13--1h11h13--1h11h13--1h11h13----
E|--------------------------------------------------------------------------------

E|-----------------------------------------------------------------------------------------
B|-----------------------------------------------------------------------------------------
G|-----------------------------------------------------------------------------------------
D|--------------------------------------11-------------------------------------13-13-13h15-
A|---1h11h13--1h11h13--1h11h13--1h11h13-----1h11h13--1h11h13--1h11h13--1h11h13-------------
E|-----------------------------------------------------------------------------------------

E|-----------------------------------------------------------
B|-----------------------------------------------------------
G|-----------------------------------------------------15\3--
D|--15-13----13-12-13-15----------------13-------------15\3--
A|--------------------------13-13----11----13----------13\1--
E|-----------------------------------------------------------

Outro 1: *Distorted Guitar, Let Final Note Ring Out*
And I will try will try,
E|--------------------------------------------------------------------------------------------------
B|--------------------------------------------------------------------------------------------------
G|--------------------------------------------------------------------------------------------------
D|--3--3--3--3--3--3--3--3--4--4--4--4--4--4--4--4--5--5--5--5--5--5--5--5--4--4--4--4--4--4--4--4--
A|--1--1--1--1--1--1--1--1--1--1--1--1--1--1--1--1--1--1--1--1--1--1--1--1--1--1--1--1--1--1--1--1--
E|--------------------------------------------------------------------------------------------------
Now I will try will try
E|--------------------------------------------------------------------------------------------------
B|--------------------------------------------------------------------------------------------------
G|--------------------------------------------------------------------------------------------------
D|--3--3--3--3--3--3--3--3--4--4--4--4--4--4--4--4--5--5--5--5--5--5--5--5--4--4--4--4--4--4--4--4--
A|--1--1--1--1--1--1--1--1--1--1--1--1--1--1--1--1--1--1--1--1--1--1--1--1--1--1--1--1--1--1--1--1--
E|--------------------------------------------------------------------------------------------------
Is there somewhere where people have a heart,
E|--------------------------------------------------------------------------------------------------
B|--------------------------------------------------------------------------------------------------
G|--------------------------------------------------------------------------------------------------
D|--3--3--3--3--3--3--3--3--4--4--4--4--4--4--4--4--5--5--5--5--5--5--5--5--4--4--4--4--4--4--4--4--
A|--1--1--1--1--1--1--1--1--1--1--1--1--1--1--1--1--1--1--1--1--1--1--1--1--1--1--1--1--1--1--1--1--
E|--------------------------------------------------------------------------------------------------
Is anyone listening can we start,
E|--------------------------------------------------------------------------------------------------
B|--------------------------------------------------------------------------------------------------
G|--------------------------------------------------------------------------------------------------
D|--3--3--3--3--3--3--3--3--4--4--4--4--4--4--4--4--5--5--5--5--5--5--5--5--4--4--4--4--4--4--4--4--
A|--1--1--1--1--1--1--1--1--1--1--1--1--1--1--1--1--1--1--1--1--1--1--1--1--1--1--1--1--1--1--1--1--
E|--------------------------------------------------------------------------------------------------
To be what we could be,
E|--------------------------------------------------------------------------------------------------
B|--------------------------------------------------------------------------------------------------
G|--------------------------------------------------------------------------------------------------
D|--3--3--3--3--3--3--3--3--4--4--4--4--4--4--4--4--5--5--5--5--5--5--5--5--4--4--4--4--4--4--4--4--
A|--1--1--1--1--1--1--1--1--1--1--1--1--1--1--1--1--1--1--1--1--1--1--1--1--1--1--1--1--1--1--1--1--
E|--------------------------------------------------------------------------------------------------
And purity, (Purity)
E|--------------------------------------------------------------------------------------------------
B|--------------------------------------------------------------------------------------------------
G|--------------------------------------------------------------------------------------------------
D|--3--3--3--3--3--3--3--3--4--4--4--4--4--4--4--4--5--5--5--5--5--5--5--5--4--4--4--4--4--4--4--4--
A|--1--1--1--1--1--1--1--1--1--1--1--1--1--1--1--1--1--1--1--1--1--1--1--1--1--1--1--1--1--1--1--1--
E|--------------------------------------------------------------------------------------------------
And purity, (Purity)
Is not what I see,
E|-----------------------------------------------------------------------------------------------------
B|-----------------------------------------------------------------------------------------------------
G|--------------------------------------------------------------------------------------------------3--
D|--3--3--3--3--3--3--3--3--4--4--4--4--4--4--4--4--5--5--5--5--5--5--5--5--4-----4--4-----4--4--4--3--
A|--1--1--1--1--1--1--1--1--1--1--1--1--1--1--1--1--1--1--1--1--1--1--1--1--1-----1--1-----1--1--1--1--
E|-----------------------------------------------------------------------------------------------------

Outro 2: *Clean Guitar*
Let's make a hero out of me,
E|-----1--------------------------1--------------------------1--------------------------1--------------------
B|-----------3--------------------------3--------------------------3--------------------------3--------------
G|-----------------3-----3--------------------3-----3--------------------3-----3--------------------3-----3--
D|--3-----3-----------3--------4-----4-----------4--------5-----5-----------5--------------------------4-----
A|-----------------------------------------------------------------------------------4-----4-----------------
E|-----------------------------------------------------------------------------------------------------------
Let's make a hero out of me...
E|-----1--------------------------1--------------------------1--------------------------1-----------------------1--
B|-----------3--------------------------3--------------------------3--------------------------3-----------------3--
G|-----------------3-----3--------------------3-----3--------------------3-----3--------------------3-----3-----3--
D|--3-----3-----------3--------4-----4-----------4--------5-----5-----------5--------------------------4--------3--
A|-----------------------------------------------------------------------------------4-----4--------------------1--
E|--------------------------------------------------------------------------------------------------------------1--
tabs and chords, guitar tabs, music transcription, music technology, deep learning, music information retrieval, transcribe into tabs & chords, chordify, music renditions, songsterr, reverbnation, tabulature, bollywood chords, ultimate guitar, yousician, guitar lessons, acoustic guitar, electric guitar, guitar tuner, 911 tabs