Guitar Tabs for A Great Big World - Say Something Feat Christina Aguilera

A Great Big World - Say Something feat Christina Aguilera

Intro
             Bm       G     D        A4
E|-----------2--------3-----------------------
B|--3--3--3--3--3--3--3--3--3--3--3--3--3--3--
G|-----------4--------0-----2--------2--------
D|-----------4--------0-----0--------2--------
A|-----------2--------2--------------0--------
E|--------------------3-----------------------

Chorus

    Bm                G                    D        A4
       Say something, I'm giving up on you  
E|--2-----------------3--------------------------------------
B|--3-----3-----3-----3--------3-----3-----3--3--3--3--3--3--
G|--4-----------------0--------------------2--------2--------
D|--4-----------------0--------------------0--------2--------
A|--2-----------------2-----------------------------0--------
E|--------------------3--------------------------------------

    Bm                G                       D        A4
          I'll be the one, if you want me to  
E|--2-----------------3-----------------------------------------
B|--3-----3-----3-----3--------3-----3--------3--3--3--3--3--3--
G|--4-----------------0-----------------------2--------2--------
D|--4-----------------0-----------------------0--------2--------
A|--2-----------------2--------------------------------0--------
E|--------------------3-----------------------------------------

    Bm                G                    D        A4
          Anywhere,   I would've followed you
E|--2-----------------3--------------------------------------
B|--3-----3-----3-----3--------3-----3-----3--3--3--3--3--3--
G|--4-----------------0--------------------2--------2--------
D|--4-----------------0--------------------0--------2--------
A|--2-----------------2-----------------------------0--------
E|--------------------3--------------------------------------

    Bm                G                    D        A4
      Say something, I'm giving up on you
E|--2-----------------3--------------------------------------
B|--3-----3-----3-----3--------3-----3-----3--3--3--3--3--3--
G|--4-----------------0--------------------2--------2--------
D|--4-----------------0--------------------0--------2--------
A|--2-----------------2-----------------------------0--------
E|--------------------3--------------------------------------

1st Verse

    D                F#m
And I am feeling so small   
E|--2-----------------2--
B|--3-----------------2--
G|--2-----------------2--
D|--0-----------------4--
A|--------------------4--
E|--------------------2--

          G                             D     A
  It was over my head, I know nothing at all
E|--------3-----------------------------2-----0--
B|--------3-----------------------------3-----2--
G|--------0-----------------------------2-----2--
D|--------0-----------------------------0-----2--
A|--------2-----------------------------------0--
E|--------3--------------------------------------

    D                    F#m
And I will stumble  and fall   
E|--2--------------------2--
B|--3--------------------2--
G|--2--------------------2--
D|--0--------------------4--
A|-----------------------4--
E|-----------------------2--

             G                                  D     A
  I'm still learning to love, just starting to crawl
E|-----------3-----------------------------------2-----0--
B|-----------3-----------------------------------3-----2--
G|-----------0-----------------------------------2-----2--
D|-----------0-----------------------------------0-----2--
A|-----------2-----------------------------------------0--
E|-----------3--------------------------------------------

Chorus

    Bm                G                    D        A4
       Say something, I'm giving up on you  
E|--2-----------------3--------------------------------------
B|--3-----3-----3-----3--------3-----3-----3--3--3--3--3--3--
G|--4-----------------0--------------------2--------2--------
D|--4-----------------0--------------------0--------2--------
A|--2-----------------2-----------------------------0--------
E|--------------------3--------------------------------------

    Bm                G                       D        A4
       I'm sorry that I couldn't get to you
E|--2-----------------3-----------------------------------------
B|--3-----3-----3-----3--------3-----3--------3--3--3--3--3--3--
G|--4-----------------0-----------------------2--------2--------
D|--4-----------------0-----------------------0--------2--------
A|--2-----------------2--------------------------------0--------
E|--------------------3-----------------------------------------

    Bm                G                    D        A4
          Anywhere,   I would've followed you
E|--2-----------------3--------------------------------------
B|--3-----3-----3-----3--------3-----3-----3--3--3--3--3--3--
G|--4-----------------0--------------------2--------2--------
D|--4-----------------0--------------------0--------2--------
A|--2-----------------2-----------------------------0--------
E|--------------------3--------------------------------------

    Bm                G                    D        A4
      Say something, I'm giving up on you
E|--2-----------------3--------------------------------------
B|--3-----3-----3-----3--------3-----3-----3--3--3--3--3--3--
G|--4-----------------0--------------------2--------2--------
D|--4-----------------0--------------------0--------2--------
A|--2-----------------2-----------------------------0--------
E|--------------------3--------------------------------------

2nd Verse


    D                F#m
And I will swallow my pride 
E|--2-----------------2--
B|--3-----------------2--
G|--2-----------------2--
D|--0-----------------4--
A|--------------------4--
E|--------------------2--

             G                                   D     A
 You're the one that I love  and  I'm saying goodbye
E|-----------3-----------------------------------2-----0--
B|-----------3-----------------------------------3-----2--
G|-----------0-----------------------------------2-----2--
D|-----------0-----------------------------------0-----2--
A|-----------2-----------------------------------------0--
E|-----------3--------------------------------------------

Chorus

    Bm                G                    D        A4
       Say something, I'm giving up on you  
E|--2-----------------3--------------------------------------
B|--3-----3-----3-----3--------3-----3-----3--3--3--3--3--3--
G|--4-----------------0--------------------2--------2--------
D|--4-----------------0--------------------0--------2--------
A|--2-----------------2-----------------------------0--------
E|--------------------3--------------------------------------

    Bm                G                       D        A4
       I'm sorry that I couldn't get to you
E|--2-----------------3-----------------------------------------
B|--3-----3-----3-----3--------3-----3--------3--3--3--3--3--3--
G|--4-----------------0-----------------------2--------2--------
D|--4-----------------0-----------------------0--------2--------
A|--2-----------------2--------------------------------0--------
E|--------------------3-----------------------------------------

    Bm                G                    D        A4
          Anywhere,   I would've followed you, Oh oh oh
E|--2-----------------3--------------------------------------
B|--3-----3-----3-----3--------3-----3-----3--3--3--3--3--3--
G|--4-----------------0--------------------2--------2--------
D|--4-----------------0--------------------0--------2--------
A|--2-----------------2-----------------------------0--------
E|--------------------3--------------------------------------

    Bm                G                    D        A4
      Say something, I'm giving up on you
E|--2-----------------3--------------------------------------
B|--3-----3-----3-----3--------3-----3-----3--3--3--3--3--3--
G|--4-----------------0--------------------2--------2--------
D|--4-----------------0--------------------0--------2--------
A|--2-----------------2-----------------------------0--------
E|--------------------3--------------------------------------

Ending

    Bm                G                    D        A4
      Say something, I'm giving up on you
E|--2-----------------3--------------------------------------
B|--3-----3-----3-----3--------3-----3-----3--3--3--3--3--3--
G|--4-----------------0--------------------2--------2--------
D|--4-----------------0--------------------0--------2--------
A|--2-----------------2-----------------------------0--------
E|--------------------3--------------------------------------

    Bm                G        D 
      Say something, 
E|--2-----------------3-----------
B|--3-----3-----3-----3--3--3--3--
G|--4-----------------0--------2--
D|--4-----------------0--------0--
A|--2-----------------2-----------
E|--------------------3-----------
tabs and chords, guitar tabs, music transcription, music technology, deep learning, music information retrieval, transcribe into tabs & chords, chordify, music renditions, songsterr, reverbnation, tabulature, bollywood chords, ultimate guitar, yousician, guitar lessons, acoustic guitar, electric guitar, guitar tuner, 911 tabs