Guitar Tabs for A Dark And Gentle Place

(/) Slide Up  (\) Slide Down  (h) Hammer On  (p) Pull Off  (b) Bend (r) Release (v) Vibrato (x) Muted

Tabs for Song : 

Song lyrics here
E|--5--------3--------5--------3--------2--------2--------2--------2--------
B|-----0--------0--------0--------0--------0--------0--------0--------0-----
G|--------0--------0--------0--------0--------0--------0--------0--------0--
D|--------------------------------------------------------------------------
A|--------------------------------------------------------------------------
E|--0-----------------0-----------------0-----------------0-----------------

E|--5--------3--------5--------3--------2--------2--------2--------2--------\
B|-----0--------0--------0--------0--------0--------0--------0--------0-----
G|--------0--------0--------0--------0--------0--------0--------0--------0--
D|--------------------------------------------------------------------------
A|--------------------------------------------------------------------------
E|--0-----------------0-----------------0-----------------0-----------------

E|--9--------7--------9--------7--------6--------7--------6--------7--------
B|-----0--------0--------0--------0--------0--------0--------0--------0-----
G|--------0--------0--------0--------0--------0--------0--------0--------0--
D|--------------------------------------------------------------------------
A|--------------------------------------------------------------------------
E|--0-----------------0-----------------0-----------------0-----------------

E|--9--------7--------9--------7--------6--------7--------6--------7--------\
B|-----0--------0--------0--------0--------0--------0--------0--------0-----
G|--------0--------0--------0--------0--------0--------0--------0-----------
D|-----------------------------------------------------------------------0--
A|--------------------------------------------------------------------------
E|--0-----------------0-----------------0-----------------0-----------------

E|--10-------9--------10-------9--------7--------7--------7--------7--------
B|-----0--------0--------0--------0--------0--------0--------0--------0-----
G|--------0--------0--------0--------0--------0--------0--------0--------0--
D|--------------------------------------------------------------------------
A|--------------------------------------------------------------------------
E|--0-----------------0-----------------0-----------------0-----------------

E|--10-------9--------10-------9--------7--------7--------7--------7--------\
B|-----0--------0--------0--------0--------0--------0--------0--------0-----
G|--------0--------0--------0--------0--------0--------0--------0--------0--
D|--------------------------------------------------------------------------
A|--------------------------------------------------------------------------
E|--0-----------------0-----------------0-----------------0-----------------

E|--5--------3--------5--------3--------2--------2--------2--------2--------
B|-----0--------0--------0--------0--------0--------0--------0--------0-----
G|--------0--------0--------0--------0--------0--------0--------0--------0--
D|--------------------------------------------------------------------------
A|--------------------------------------------------------------------------
E|--0-----------------0-----------------0-----------------0-----------------

E|--5--------3--------5--------3--------2--------2--------2--------2--------\
B|-----0--------0--------0--------0--------0--------0--------0--------0-----
G|--------0--------0--------0--------0--------0--------0--------0--------0--
D|--------------------------------------------------------------------------
A|--------------------------------------------------------------------------
E|--0-----------------0-----------------------------------0-----------------

E|--0--------2--------3--------5--------8--------7--------8--------7--------
B|-----0--------0--------0--------0--------0--------0--------0--------0-----
G|--------0--------0--------0--------0--------0--------0--------0--------0--
D|--------------------------------------------------------------------------
A|--------------------------------------------------------------------------
E|--0-----------------0-----------------0-----------------0-----------------

E|--0--------2--------3--------5--------8--------7--------8--------7--------\\\\\
B|-----0--------0--------0--------0--------0--------0--------0--------0-----
G|--------0--------0--------0--------0--------0--------0--------0--------0--
D|--------------------------------------------------------------------------
A|--------------------------------------------------------------------------
E|--0-----------------0-----------------0-----------------0-----------------

Song lyrics here
E|--
B|--
G|--
D|--
A|--
E|--

Paste any tab in acousterr's tab maker and we'll play it !!!
Now supports capo and sound effects for vibrato/pull-off/hammer/bends/mutes etc !!! Checkout help section
tabs and chords, guitar tabs, music contests, music covers, songsterr, reverbnation, renditions, tabulature, bollywood chords, ultimate guitar, yousician, guitar lessons, torrins, fender, gibson, acoustic guitar, electric guitar, youtube covers, gootar, guitar tuner, A-Z tabs, 911 tabs