A Calm Day In The Woods - Composers Of Msb - Guitar Tabs

Track 2
    
                                                                                                                                                                                                                                                                                                                                                                                                                                                                                                                                                                                                                                                                                                                                                                                                                                                                                                                                                                                                                                                                                                                                                                                              
E|-------------------------|-----------------------|
B|--------1--0-------------|-----------------------|
G|--------1--0--3--2-------|-----------------------|
D|--------------3--2-------|-----------------------|
A|-------------------------|0--0--x--0--0--x--6--8-|
E|-------------------------|0--0--x--0--0--x--6--8-|

    
                                                                                                                                                                                                                                                                                                                                                                                                                                                                                                                                                                                                                                                                                                                                                                                                                                                                                                                                                                                                                                                                                                                                                                                              
E|-------------------------|-----------------------|
B|-------------------------|-----------------------|
G|-------------------------|-----------------------|
D|-------------------------|-----------------------|
A|--0--0--x--0--0--x--9--7-|0--0--x--0--0--x--6--8-|
E|--0--0--x--0--0--x--9--7-|0--0--x--0--0--x--6--8-|

    
                                                                                                                                                                                                                                                                                                                                                                                                                                                                                                                                                                                                                                                                                                                                                                                                                                                                                                                                                                                                                                                                                                                                                                                              
E|--4--1-------------------|-----------------------|
B|--------1--3-------------|-----------------------|
G|-----------------0-------|-----------------------|
D|--------------3----------|-----------------------|
A|--------------------2--3-|0--0--x--0--0--x--6--8-|
E|-------------------------|0--0--x--0--0--x--6--8-|

    
                                                                                                                                                                                                                                                                                                                                                                                                                                                                                                                                                                                                                                                                                                                                                                                                                                                                                                                                                                                                                                                                                                                                                                                              
E|-------------------------|-----------------------|
B|-------------------------|-----------------------|
G|-------------------------|-----------------------|
D|-------------------------|-----------------------|
A|--0--0--x--0--0--x--9--7-|0--0--x--0--0--x--6--8-|
E|--0--0--x--0--0--x--9--7-|0--0--x--0--0--x--6--8-|

    
                                                                                                                                                                                                                                                                                                                                                                                                                                                                                                                                                                                                                                                                                                                                                                                                                                                                                                                                                                                                                                                                                                                                                                                              
E|--4--1-------------------|------------1--3--8----|
B|--------1--3-------------|------1--3-------------|
G|-----------------0-------|---0-------------------|
D|--------------3----------|3----------------------|
A|--------------------2--3-|-----------------------|
E|-------------------------|-----------------------|

    
                                                                                                                                                                                                                                                                                                                                                                                                                                                                                                                                                                                                                                                                                                                                                                                                                                                                                                                                                                                                                                                                                                                                                                                              
E|--------3----------------|-----------------------|
B|-----------------0-------|-----------------------|
G|--------------3----------|-----------------------|
D|--------------------1--2-|-----------------------|
A|-------------------------|0--0--x--0--0--x--6--8-|
E|-------------------------|0--0--x--0--0--x--6--8-|

    
                                                                                                                                                                                                                                                                                                                                                                                                                                                                                                                                                                                                                                                                                                                                                                                                                                                                                                                                                                                                                                                                                                                                                                                              
E|-------------------------|-----------------------|
B|-------------------------|-----------------------|
G|-------------------------|-----------------------|
D|-------------------------|-----------------------|
A|--0--0--x--0--0--x--9--7-|0--0--x--0--0--x--6--8-|
E|--0--0--x--0--0--x--9--7-|0--0--x--0--0--x--6--8-|

    
                                                                                                                                                                                                                                                                                                                                                                                                                                                                                                                                                                                                                                                                                                                                                                                                                                                                                                                                                                                                                                                                                                                                                                                              
E|--4--1-------------------|-----------------------|
B|--------1--3-------------|-----------------------|
G|-----------------0-------|-----------------------|
D|--------------3----------|-----------------------|
A|--------------------2--3-|0--0--x--0--0--x--6--8-|
E|-------------------------|0--0--x--0--0--x--6--8-|

    
                                                                                                                                                                                                                                                                                                                                                                                                                                                                                                                                                                                                                                                                                                                                                                                                                                                                                                                                                                                                                                                                                                                                                                                              
E|-------------------------|-----------------------|
B|-------------------------|-----------------------|
G|-------------------------|-----------------------|
D|-------------------------|-----------------------|
A|--0--0--x--0--0--x--9--7-|0--0--x--0--0--x--6--8-|
E|--0--0--x--0--0--x--9--7-|0--0--x--0--0--x--6--8-|

    
                                                                                                                                                                                                                                                                                                                                                                                                                                                                                                                                                                                                                                                                                                                                                                                                                                                                                                                                                                                                                                                                                                                                                                                              
E|--4--1-------------------|------------1--3--8----|
B|--------1--3-------------|------1--3-------------|
G|-----------------0-------|---0-------------------|
D|--------------3----------|3----------------------|
A|--------------------2--3-|-----------------------|
E|-------------------------|-----------------------|

    
                                                                                                                                                                                                                                                                                                                                                                                                                                                                                                                                                                                                 
E|-------------------------|
B|-------------------------|
G|-------------------------|
D|-------------------------|
A|--0--0--x--0--0--x--6--8-|
E|--0--0--x--0--0--x--6--8-|

    
                                                                                                                                                                                                                                                                                                                                                                                                                                                                                                                                                                                                                                                                                                                                                                                                                                                                                                                                                                                                                                                                                                                                                                                              
E|-------------------------|-----------------------|
B|-------------------------|-----------------------|
G|-------------------------|-----------------------|
D|-------------------------|-----------------------|
A|--0--0--x--0--0--x--9--7-|0--0--x--0--0--x--6--8-|
E|--0--0--x--0--0--x--9--7-|0--0--x--0--0--x--6--8-|

    
                                                                                                                                                                                                                                                                                                                                                                                                                                                                                                                                                                                                 
E|-------------------------|
B|--------------------1----|
G|--------------------0----|
D|-------------------------|
A|--0--3--7--8--10-12------|
E|--0--3--7--8--10-12------|

    
                                                                                                                                                                                                                                                                                                                                                                                                                                                                                                                                                                                                 
E|-------------------------|
B|-------------------------|
G|-------------------------|
D|--2----------------------|
A|--2----------------------|
E|--0----------------------|
tabs and chords, guitar tabs, music transcription, music technology, deep learning, music information retrieval, transcribe into tabs & chords, chordify, music renditions, songsterr, reverbnation, tabulature, bollywood chords, ultimate guitar, yousician, guitar lessons, acoustic guitar, electric guitar, guitar tuner, 911 tabs