Guitar Tabs for 3 On 5

(/) Slide Up  (\) Slide Down  (h) Hammer On  (p) Pull Off  (b) Bend (r) Release (v) Vibrato (x) Muted

Tabs for Song : 
BPM : 200

Song lyrics here
E|--------------------------------------------------------------------------------------------------------------
B|-----------------------------------------------------------------------------------------------5--------------
G|-----------------------------------------------------------------------5-----------------5--7--------5--7--5--
D|--------------------------------------------5--7--------5-----5--7--9-----5--7--9--7--9-----------9-----------
A|-----------------5--7--8-----5--7--5--7--8--------7--8-----8--------------------------------------------------
E|--5--7--8--7--8-----------8-----------------------------------------------------------------------------------

E|--------------------------------5--7--8--7--5--7--5-----------5-----------------------------------------------
B|-----5--6--8-----5--6--5--6--8-----------------------8--6--5-----8--6--8--6--5--------6--5-----5--------------
G|--7-----------7-----------------------------------------------------------------7--5--------7-----7--5--------
D|--------------------------------------------------------------------------------------------------------9--7--
A|--------------------------------------------------------------------------------------------------------------
E|--------------------------------------------------------------------------------------------------------------

E|--------------------------------------------------------------------------
B|--------------------------------------------------------------------------
G|--5-----------------------------------------------------------------------
D|-----9--7--9--7--5--------7--5-----5--------------------------------------
A|--------------------8--7--------8-----8--7--5-----8--7--5--7--5-----------
E|-----------------------------------------------8-----------------8--7--5--

Song lyrics here
E|--
B|--
G|--
D|--
A|--
E|--

Paste any tab in acousterr's tab maker and we'll play it !!!
Now supports capo and sound effects for vibrato/pull-off/hammer/bends/mutes etc !!! Checkout help section
tabs and chords, guitar tabs, music transcription, music technology, deep learning, music information retrieval, transcribe into tabs & chords, chordify, music renditions, songsterr, reverbnation, tabulature, bollywood chords, ultimate guitar, yousician, guitar lessons, acoustic guitar, electric guitar, guitar tuner, 911 tabs