Guitar Tabs for 214 - River

E|-----------------------------------------------------------------------------------------------------------------
B|-----------------------------------------------------------------------------------------------------------------
G|--------------1--------0-----------------------------1--------0---------------------------1h2--1-----------------
D|--------2--------4--2-----4--2-----0--2--------2--------4--2-----4--2-----0--2--------2---------------2h4--2-----
A|-----2-----2-----------3--------3--0--------2-----2-----------3--------3--0--------2-----------------------------
E|--0--------------------------------------0--------------------------------------0--------------------------------
Use manual mode to free up cursor. Paste any tab in acousterr tab maker and we'll play it !!!
E|--------------------------------------------------------------------------------------
B|--------------0--------------------3--2--3-----2--3-----2--0-----------0--------------
G|--2--2--2-----------------------------------------------------2--2--------------------
D|-----------------------------2--2-----------------------------------------------------
A|-----------------------------------2----------x------2-------x------------------------
E|----x------0-------x0--0----x---------------------------------------0-------x0--0----x

E|-----------------------------------------------------------
B|--------3--2--3--3--2--3-----2--0-----0-----2--------------
G|-----------------------------------2-----------------------
D|--2--2-----------------------------------------------------
A|--------2----------x------2-------x------0-------x0--0----x
E|-----------------------------------------------------------

E|--0--2--3--2--3--3--2--3-----2--3--2--------------------
B|--------------------------------------0-----------------
G|--------------------------------------------------------
D|--------------------------------------------------------
A|--------0----------x------0-------x---------------------
E|-----------------------------------------0----x0--0----x

E|--------------------------------------------------------------------------------------------------------------------
B|--------3--2--3--3--2--3-----2--0-----------0--------------------3--2--3--3--2--3-----2--0-----0-----2--------------
G|-----------------------------------2--2-----------------------------------------------------2-----------------------
D|--2--2-----------------------------------------------------2--2-----------------------------------------------------
A|--------2----------x------2-------x------------------------------2----------x------2-------x------0-------x0--0----x
E|-----------------------------------------0-------x0--0----x---------------------------------------------------------

E|--0--2--3--2--3--3--2--3------3/5--3--2-----------3--2--0--0-----------------------------
B|-----------------------------------------------3--------------3-----3------3h5--3--3--3--
G|--------------------------------------------0--------------------------0-----------------
D|-----------------------------------------------------------------------------------------
A|--------0----------x------0--------------------------------------2----x---3----------x---
E|-------------------------------------x---3-------x---0-------x---------------------------

E|--------------------------------------------------------------3--2--0--0-----------------------------
B|-----0--0--3--1--0--0--------------------1--------3--------3--------------3-----3------3h5--3--3--3--
G|-----------------------2-----2--2--------------2--------0--------------------------0-----------------
D|--------------------------0-----------2-----0--------------------------------------------------------
A|-----------------------------------3-----------------------------------------2----x---3----------x---
E|--3-------x---0-------x--------x---------------------3-------x---0-------x---------------------------

E|--------------------------------------------------------------------------------------------
B|-----0--0--3--1--0--0-----------------------------3-----------------------------------------
G|-----------------------2-----2-----------0-----2-----------------1--------0-----------------
D|--------------------------0-----------2-----0--------------2--------4--2-----4--2-----0--2--
A|--------------------------------0--3--------------------2-----2-----------3--------3--0-----
E|--3-------x---0-------x--------x---------------------0--------------------------------------

E|--------------------------------------------------------------------
B|--------------------------------------------------------------------
G|--------------1--------0---------------------------1h2--1-----------
D|--------2--------4--2-----4--2-----0--2--------2------------2h4--2--
A|-----2-----2-----------3--------3--0--------2-----------------------
E|--0--------------------------------------0--------------------------

E|-----------------------------------------------------------------------------
B|--------------0--------------------3--2--3--3--2--3-----2--0-----0-----------
G|--2--2--2-----------------------------------------------------2--------------
D|--------------------------2--4--2--------------------------------------------
A|-----------------------------------2----------x------2-------x---------------
E|----x------0-------x0--0-------x---------------------------------0----x0--0--

E|--------------------------------------------------------------
B|-----------3--2--3--3--2--3-----2--0-----0-----2--------------
G|--------------------------------------2-----------------------
D|--2--4--2-----------------------------------------------------
A|-----------2----------x------2-------x------0-------x0--0----x
E|-------x------------------------------------------------------

E|--0--2--3--2--3--3--2--3-----2--3--2--------------------------------------------------------------------------
B|--------------------------------------0-----------------------3--2--3--3--2--3-----2--0-----0-----------------
G|-----------------------------------------------------------------------------------------2--------------------
D|--------------------------------------------------------2--4--------------------------------------------------
A|--------0----------x------0-------x---------------------------2----------x------2-------x---------------------
E|-----------------------------------------0----x0--0----x---------------------------------------0----x0--0----x

E|-----------------------------------------------------------
B|--------3--2--3--3--2--3-----2--0-----0-----2--------------
G|-----------------------------------2-----------------------
D|--2--2-----------------------------------------------------
A|--------2----------x------2-------x------0-------x0--0----x
E|-----------------------------------------------------------

E|--0--2--3--2--3--3--2--3------3/5--3--2-----------3--2--0--0-----------------------------
B|-----------------------------------------------3--------------3-----3------3h5--3--3--3--
G|--------------------------------------------0--------------------------0-----------------
D|-----------------------------------------------------------------------------------------
A|--------0----------x------0--------------------------------------2----x---3----------x---
E|-------------------------------------x---3-------x---0-------x---------------------------

E|-----------------------------------------------------
B|-----0--0--3--1--0--0--------------------1--------3--
G|-----------------------2-----2--2--------------2-----
D|--------------------------0-----------2-----0--------
A|-----------------------------------3-----------------
E|--3-------x---0-------x--------x---------------------

E|-----------3--2--0--0--------------------------------------------------------------
B|--------3--------------3-----3------3h5--3--3--3-----0--0--3--1--0--0--------------
G|-----0--------------------------0--------------------------------------2-----2-----
D|--------------------------------------------------------------------------0--------
A|--------------------------2----x---3----------x---------------------------------0--
E|--3-------x---0-------x---------------------------3-------x---0-------x--------x---

E|-----------------
B|--1--1--1--0-----
G|--------------2--
D|-----------0-----
A|--3--------------
E|-----------------

E|-----------3--2--0--0--------------------------------------------------------------
B|--------3--------------3-----3------3h5--3--3--3-----0--0--3--1--0--0--------------
G|-----0--------------------------0--------------------------------------2-----2--2--
D|--------------------------------------------------------------------------0--------
A|--------------------------2----x---3----------x------------------------------------
E|--3-------x---0-------x---------------------------3-------x---0-------x--------x---

E|-----------------------------3--2--0--0--------------------------------------------------------------
B|--------1--------3--------3--------------3-----3------3h5--3--3--3-----0--0--3--1--0--0--------------
G|--------------2--------0--------------------------0--------------------------------------2-----2--2--
D|-----2-----0--------------------------------------------------------------------------------0--------
A|--3-----------------------------------------2----x---3----------x------------------------------------
E|--------------------3-------x---0-------x---------------------------3-------x---0-------x--------x---

E|--------------------
B|--1--1--1--0--------
G|--------------2--0--
D|-----------0-----0--
A|--3--------------2--
E|-----------------3--



tabs and chords, guitar tabs, music transcription, music technology, deep learning, music information retrieval, transcribe into tabs & chords, chordify, music renditions, songsterr, reverbnation, tabulature, bollywood chords, ultimate guitar, yousician, guitar lessons, acoustic guitar, electric guitar, guitar tuner, 911 tabs