Guitar Tabs for #2 Bach Practice Riff (alternate Picking)

(/) Slide Up  (\) Slide Down  (h) Hammer On  (p) Pull Off  (b) Bend (r) Release (v) Vibrato

Tabs for Song : 

Song lyrics here
E|-----------8--7--5-----------------7--5--------------------5--------------------------------------
B|--5--7--8-----------8--7-----5--7--------8--7--5--------5-----8--7--5--------------8--7--5--------
G|--------------------------7-----------------------5--7-----------------7--4--5--7-----------7--5--
D|--------------------------------------------------------------------------------------------------
A|--------------------------------------------------------------------------------------------------
E|--------------------------------------------------------------------------------------------------

E|--------------------------------------------------------------------------------------------------
B|-----------7--5--------------------5--------------------------------------------------------------
G|-----4--5--------7--5--4--------4-----7--5--4--------------7--5--4-----------------5--4-----------
D|--7-----------------------5--7-----------------7--4--5--7-----------7--5-----4--5--------7--5--4--
A|--------------------------------------------------------------------------7-----------------------
E|--------------------------------------------------------------------------------------------------

E|--------------------------------------------------------------------------------------------------------------
B|--------------------------------------------------------------------------------------------------------------
G|-----------4--------------------------------------------------------------------------------------------------
D|--------4-----7--5--4--------------7--5--4-----------------5--4--2-----------------4--2--0--------------------
A|--5--7-----------------7--3--5--7-----------7--5--2--3--5-----------5--3--0--2--3-----------3--2--0-----------
E|-----------------------------------------------------------------------------------------------------3--2--0--

E|--
B|--
G|--
D|--
A|--
E|--

Song lyrics here
E|--
B|--
G|--
D|--
A|--
E|--

Now supports capo and sound effects for vibrato/pull-off/hammer/bends etc !!! Checkout help section
tabs and chords, guitar tabs, music transcription, music technology, deep learning, music information retrieval, transcribe into tabs & chords, chordify, music renditions, songsterr, reverbnation, tabulature, bollywood chords, ultimate guitar, yousician, guitar lessons, acoustic guitar, electric guitar, guitar tuner, 911 tabs