Bass Tabs for 2

(/) Slide Up  (\) Slide Down  (h) Hammer On  (p) Pull Off  (b) Bend (r) Release (v) Vibrato (x) Muted

Tabs for Song : 

Song lyrics here
G|--------------------------------------------------
D|--------------------------------------------------
A|--------------------------------------------------
D|--0--4--6--3--5--7---4\12-0--4--6--3--5--7---4\12-

Song lyrics here
G|-----------------------3-----
D|--------------------4--------
A|-----------------3--------2--
D|--0--0--0--3--2--------------

Paste any tab in acousterr's tab maker and we'll play it !!!
Now supports capo and sound effects for vibrato/pull-off/hammer/bends/mutes etc !!! Checkout help section
tabs and chords, guitar tabs, music transcription, music technology, deep learning, music information retrieval, transcribe into tabs & chords, chordify, music renditions, songsterr, reverbnation, tabulature, bollywood chords, ultimate guitar, yousician, guitar lessons, acoustic guitar, electric guitar, guitar tuner, 911 tabs