Guitar Tabs for 13 Jours En France

(/) Slide Up  (\) Slide Down  (h) Hammer On  (p) Pull Off  (b) Bend (r) Release (v) Vibrato (x) Muted

Tabs & Chords
BPM : 104.0
Check Track 2 for Chord Positions 

    Am                      D                    G                       C                    
E|--------------------------------2-----------------------------------------------0-----------
B|-----0--------0--------------------3--------------------------0-----------------------------
G|--5-----5--------5--0-----2-----------2--------0--2-----0--2-----2--------0--------0--------
D|-----------------------------------------6-----------6--------------------------------------
A|-----------------------------------------------------------------------3-----------------0--
E|--------------------------------------------------------------------------------------------

    A     D                                      A                       B                 Am 
E|-----------------------------------------------0--2--0-----0-----------------2--------------
B|-----------------0--------0--0--------2--2--4-----------4-----------------4-----4-----------
G|--0-----0--2--------2-----------3--------------------------------------2-----------2--------
D|-----4--------6-----------------------------------------------------------------------------
A|-----------------------------------------------------------------0--2--------------------0--
E|--------------------------------------------------------------------------------------------

                   D                 G                    C                    A              G  
E|-----------3-----------2-----------------------------0--------0--------------------------------
B|--------------------3-----3--------0-----------------------------------------------------------
G|--2--------------2-----------2--5-----2--0--2-----------0--------5--0-----2--0-----0--2-----5--
D|--------6-----------------------------------------------------------------------4--------------
A|--------------------------------------------------0--------------------------------------------
E|-----------------------------------------------------------------------------------------------

                   A                             Em          
E|-----------------------0--2--0-----0--2--0-----0-----0-----
B|-----0-----0--2--4--4-----------------------------0-----0--
G|--5-----3--------------------------------------------------
D|-----------------------------------------------------------
A|-----------------------------------------------------------
E|-----------------------------------------------------------

Guitar Tabs for 13 Jours En France






    Am                      D                    G                       C                    
E|--0-----------------------2--------------------3-----------------------0--------------------
B|--1-----------------------3--------------------3-----------------------1--------------------
G|--2-----------------------2--------------------4-----------------------0--------------------
D|--2-----------------------0--------------------5-----------------------2--------------------
A|--0--------------------------------------------5-----------------------3--------------------
E|-----------------------------------------------3--------------------------------------------

    A     D                                      A                       B                 Am 
E|--0-----2--------------------------------------0-----------------------2-----------------0--
B|--2-----3--------------------------------------2-----------------------4-----------------1--
G|--2-----2--------------------------------------2-----------------------4-----------------2--
D|--2-----0--------------------------------------2-----------------------4-----------------2--
A|--0--------------------------------------------0-----------------------2-----------------0--
E|--------------------------------------------------------------------------------------------

                   D                 G                    C                    A              G  
E|-----------------2-----------------3--------------------0--------------------0--------------3--
B|-----------------3-----------------3--------------------1--------------------2--------------3--
G|-----------------2-----------------4--------------------0--------------------2--------------4--
D|-----------------0-----------------5--------------------2--------------------2--------------5--
A|-----------------------------------5--------------------3--------------------0--------------5--
E|-----------------------------------3--------------------------------------------------------3--

                   A                             Em          
E|-----------------0-----------------------------0-----------
B|-----------------2-----------------------------0-----------
G|-----------------2-----------------------------0-----------
D|-----------------2-----------------------------2-----------
A|-----------------0-----------------------------2-----------
E|-----------------------------------------------0-----------

tabs and chords, guitar tabs, music transcription, music technology, deep learning, music information retrieval, transcribe into tabs & chords, chordify, music renditions, songsterr, reverbnation, tabulature, bollywood chords, ultimate guitar, yousician, guitar lessons, acoustic guitar, electric guitar, guitar tuner, 911 tabs