Guitar Tabs for 123

(/) Slide Up  (\) Slide Down  (h) Hammer On  (p) Pull Off  (b) Bend (r) Release (v) Vibrato (x) Muted

Tabs for Song : 

                                                  Am                   
E|-----3--------2--------7--------2--------------------------0--------------------------------------------2--
B|--1-----0--------1--------0--------------1--------------------------------------0--------------------------
G|--------------------------------------------2--------2-----------0--------0-----------0--------0-----------
D|--------------0-----------------0--------------2--2-----2-----------2--2-----2-----------0--0-----0-----0--
A|--0--------------0-----------------------0-----------------------------------------------------------------
E|-----0--3--------------8--3--------------------------------3--------------------3--------------------------

          D                    Am
E|--------------------------------------------7--------------------
B|-----3--------3--------1--------------------------10----8-----0--
G|--------2--2-----2--------2--------2-----------0-----------------
D|-----------------------------2--2-----2--------------------------
A|-----------------------0-----------------------------------------
E|--------------------------------------------8-----------------3--
       
E|--
B|--
G|--
D|--
A|--
E|--

       
       
Paste any tab in acousterr's tab maker and we'll play it !!!
Now supports capo and sound effects for vibrato/pull-off/hammer/bends/mutes etc !!! Checkout help section

Play at https://www.acousterr.com/tabmaker
tabs and chords, guitar tabs, music contests, music covers, songsterr, reverbnation, renditions, tabulature, bollywood chords, ultimate guitar, yousician, guitar lessons, torrins, fender, gibson, acoustic guitar, electric guitar, youtube covers, gootar, guitar tuner, A-Z tabs, 911 tabs