Guitar Tabs for 11/11

(/) Slide Up  (\) Slide Down  (h) Hammer On  (p) Pull Off  (b) Bend (r) Release (v) Vibrato (x) Muted

Capo 5

E|--------------------------------------------------------
B|--------------------------------------------------------
G|--------------------------------0-----------0-----------
D|--------------------0-----------------0-----------0-----
A|---0h2--------------------2-----------------------------
E|-----3--3--3--3--3--3--3--3--3--3--3--3--3--3--3--3--3--

E|--------------------------------------------------------------
B|---0h3-----0--------------------------------------------------
G|------------------2p0-----------0--------------0--------------
D|--------------------------2-----------2-----------0-----------
A|--------------------------------------------------------2-----
E|-----3--3--3--3-----3--3--3--3--3--3--3--3--3--3--3--2--3--3--

E|--------------------------------------------
B|--------------------------------------------
G|--------------------------------------------
D|--------------------------------------------
A|---0h2-----------2------------0h2-----------
E|-----3--3--3--3--3--3--3--3-----3--3--3--3--

Ripped up, I lay here getting older
E|--------------------------------------------------------------
B|---0h3-----0--------------------------------------------------
G|------------------2p0-----------0--------------0--------------
D|--------------------------2-----------2-----------0-----------
A|--------------------------------------------------------2-----
E|-----3--3--3--3-----3--3--3--3--3--3--3--3--3--3--3--2--3--3--

E|--------------------------------------------
B|--------------------------------------------
G|--------------------------------------------
D|--------------------------------------------
A|---0h2-----------2------------0h2-----------
E|-----3--3--3--3--3--3--3--3-----3--3--3--3--

Through woven arms I find a path
E|--------------------------------------------------------------
B|---0h3-----0--------------------------------------------------
G|------------------2p0-----------0--------------0--------------
D|--------------------------2-----------2-----------0-----------
A|--------------------------------------------------------------
E|-----3--3--3--3-----3--3--3--3--3--3--3--3--3--3--3--2--3--3--

E|--------------------------------------------
B|--------------------------------------------
G|--------------------------------------------
D|--------------------------------------------
A|---0h2-----------2------------0h2-----------
E|-----3--3--3--3--3--3--3--3-----3--3--3--3--

She sits in grass up to her forehead
E|--------------------------------------------------------------
B|---0h3-----0--------------------------------------------------
G|------------------2p0-----------0--------------0--------------
D|--------------------------2-----------2-----------0-----------
A|--------------------------------------------------------2-----
E|-----3--3--3--3-----3--3--3--3--3--3--3--3--3--3--3--2--3--3--

E|--------------------------------------------
B|--------------------------------------------
G|--------------------------------------------
D|--------------------------------------------
A|---0h2-----------2------------0h2-----------
E|-----3--3--3--3--3--3--3--3-----3--3--3--3--

Torn down, I lay here in the cold
E|--------------------------------------------------------------
B|---0h3-----0--------------------------------------------------
G|------------------2p0-----------0--------------0--------------
D|--------------------------2-----------2-----------0-----------
A|--------------------------------------------------------------
E|-----3--3--3--3-----3--3--3--3--3--3--3--3--3--3--3--2--3--3--

E|--------------------------------------------
B|--------------------------------------------
G|--------------------------------------------
D|--------------------------------------------
A|---0h2-----------2------------0h2-----------
E|-----3--3--3--3--3--3--3--3-----3--3--3--3--


E|-----------------------------------------
B|-----------------------------------------
G|--------------0--------------------------
D|--4-----2--------4--2------4p0-----------
A|-----------------------------------------
E|--3--3--3--3--3--3--3--3-----3--3--3--3--

E|-----------------------------------------------
B|-----------------------------------------------
G|-----------------------------------------------
D|------------------4p0--------------------------
A|---0h2---------------------------0h2-----------
E|-----3--3--3--3-----3--3--3--3-----3--3--3--3--

she turns back again, its time to go
E|--------------------------------------
B|--------------------------------------
G|--------------------------0-----------
D|--0-----4--------2--4-----------------
A|--------------------------------------
E|--3--3--3--3--3--3--3--3--3--3--3--3--

E|-----------------------------------------------
B|-----------------------------------------------
G|-----------------------------------------------
D|------------------4p0--------------------------
A|---0h2---------------------------0h2-----------
E|-----3--3--3--3-----3--3--3--3-----3--3--3--3--




Paste any tab in acousterr's tab maker and we'll play it !!!
Now supports capo and sound effects for vibrato/pull-off/hammer/bends/mutes etc !!! Checkout help section
tabs and chords, guitar tabs, music transcription, music technology, deep learning, music information retrieval, transcribe into tabs & chords, chordify, music renditions, songsterr, reverbnation, tabulature, bollywood chords, ultimate guitar, yousician, guitar lessons, acoustic guitar, electric guitar, guitar tuner, 911 tabs