??? ??????? 5000 ??? - ????? - Guitar Tabs

????
    
                                                                                                                                                                                                                                                                                                                                                                                                                                                                                                                                                                                                                                                                                                                                                                                                                                                                                                                                                                                                                                                                                                                                                                                              
E|--0--0--0--0--0--0--0--0-|0--0--0--0--0--0--0--0-|
B|--0--0--0--0--0--0--0--0-|0--0--0--0--0--0--0--0-|
G|--9--------7--------5----|---4--------2----------|
D|-------------------------|-----------------------|
A|-------------------------|-----------------------|
E|-------------------------|-----------------------|

    
                                                                                                                                                                                                                                                                                                                                                                                                                                                                                                                                                                                                                                                                                                                                                                                                                                                                                                                                                                                                                                                                                                                                                                                              
E|--0--0--0--0--0--0--0--0-|0--0--0--0--0--0--0--0-|
B|--0--0--0--0--0--0--0--0-|0--0--0--0--0--0--0--0-|
G|--1--------1--------2----|---4--------7----------|
D|-------------------------|-----------------------|
A|-------------------------|-----------------------|
E|-------------------------|-----------------------|

    
                                                                                                                                                                                                                                                                                                                                                                                                                                                                                                                                                                                                                                                                                                                                                                                                                                                                                                                                                                                                                                                                                                                                                                                              
E|--0--0--0--0--0--0--0--0-|0--0--0--0--0--0--0--0-|
B|--0--0--0--0--0--0--0--0-|0--0--0--0--0--0--0--0-|
G|--9--------7--------5----|---4--------2----------|
D|-------------------------|-----------------------|
A|-------------------------|-----------------------|
E|-------------------------|-----------------------|

    
                                                                                                                                                                                                                                                                                                                                                                                                                                                                                                                                                                                                                                                                                                                                                                                                                                                                                                                                                                                                                                                                                                                                                                                              
E|--0--0--0--0--0--0--0--0-|0--0--0--0--0----------|
B|--0--0--0--0--0--0--0--0-|0--0--0--0--0----------|
G|--1--------1--------2----|---1--------1----------|
D|-------------------------|------------2----------|
A|-------------------------|-----------------------|
E|-------------------------|-----------------------|

    
                                                                                                                                                                                                                                                                                                                                                                                                                                                                                                                                                                                                                                                                                                                                                                                                                                                                                                                                                                                                                                                                                                                                                                                              
E|-------------------------|0--0--0--0--0--0--0--0-|
B|-------------------------|0--0--0--0--0--0--0--0-|
G|-------------------------|9--------7--------5----|
D|--7--9--9--5--5--7--7----|-----------------------|
A|--5--7--7--3--3--5--5----|-----------------------|
E|-------------------------|-----------------------|

    
                                                                                                                                                                                                                                                                                                                                                                                                                                                                                                                                                                                                                                                                                                                                                                                                                                                                                                                                                                                                                                                                                                                                                                                              
E|--0--0--0--0--0----------|-----------------------|
B|--0--0--0--0--0----------|-----------------------|
G|-----4--------2----------|-----------------------|
D|-------------------------|5--7--7--4--4--5--5----|
A|-------------------------|3--5--5--2--2--3--3----|
E|-------------------------|-----------------------|

    
                                                                                                                                                                                                                                                                                                                                                                                                                                                                                                                                                                                                                                                                                                                                                                                                                                                                                                                                                                                                                                                                                                                                                                                              
E|--0--0--0--0--0--0--0--0-|0--0--0--0--0----------|
B|--0--0--0--0--0--0--0--0-|0--0--0--0--0----------|
G|--9--------7--------5----|---4--------2----------|
D|-------------------------|-----------------------|
A|-------------------------|-----------------------|
E|-------------------------|-----------------------|

    
                                                                                                                                                                                                                                                                                                                                                                                                                                                                                                                                                                                                                                                                                                                                                                                                                                                                                                                                                                                                                                                                                                                                                                                              
E|-------------------------|0--0--0--0--0--0--0--0-|
B|-------------------------|0--0--0--0--0--0--0--0-|
G|-------------------------|9--------7--------5----|
D|--7--9--9--5--5--7--7----|-----------------------|
A|--5--7--7--3--3--5--5----|-----------------------|
E|-------------------------|-----------------------|

    
                                                                                                                                                                                                                                                                                                                                                                                                                                                                                                                                                                                                                                                                                                                                                                                                                                                                                                                                                                                                                                                                                                                                                                                              
E|--0--0--0--0--0----------|-----------------------|
B|--0--0--0--0--0----------|-----------------------|
G|-----4--------2----------|-----------------------|
D|-------------------------|5--7--7--4--4--5--5----|
A|-------------------------|3--5--5--2--2--3--3----|
E|-------------------------|-----------------------|

    
                                                                                                                                                                                                                                                                                                                                                                                                                                                                                                                                                                                                 
E|-------------------------------|
B|-------------------------------|
G|-------------------------------|
D|-------------------------------|
A|--------3-----2----------------|
E|-----------------5-----3-------|

    
                                                                                                                                                                                                                                                                                                                                                                                                                                                                                                                                                                                                                                                                                                                                                                                                                                                                                                                                                                                                                                                                                                                                                                                              
E|-------------------------|-----------------------------------------------|
B|-------------------------|-----------------------------------------------|
G|-------------------------|-5p3-----2-------------------------------------|
D|-------------------------|-------------5p3-----2---5p3-----2-------------|
A|-------------------------|-------------------------------------5p3-----2-|
E|--2----------------------|-----------------------------------------------|

    
                                                                                                                                                                                                                                                                                                                                                                                                                                                                                                                                                                                                                                                                                                                                                                                                                                                                                                                                                                                                                                                                                                                                                                                              
E|-------------------------|-----------------------|
B|-------------------------|-----------------------|
G|-------------------------|-----------------------|
D|-----------2--------2----|---------2--------2----|
A|-------------------------|-----------------------|
E|--0--0--0-----0--0-------|0--0--0-----0--0-------|

    
                                                                                                                                                                                                                                                                                                                                                                                                                                                                                                                                                                                                                                                                                                                                                                                                                                                                                                                                                                                                                                                                                                                                                                                              
E|-------------------------|-----------------------|
B|-------------------------|-----------------------|
G|-------------------------|-----------------------|
D|-----------3--------3----|---------5-------------|
A|-------------------------|-----------------------|
E|--1--1--1-----1--1-------|3--3--3--------3--5--4-|

    
                                                                                                                                                                                                                                                                                                                                                                                                                                                                                                                                                                                                                                                                                                                                                                                                                                                                                                                                                                                                                                                                                                                                                                                              
E|-------------------------|-----------------------|
B|-------------------------|-----------------------|
G|-------------------------|-----------------------|
D|-----------2--------2----|---------2--------2----|
A|-------------------------|-----------------------|
E|--3--2--0-----0--0-------|0--0--0-----0--0-------|

    
                                                                                                                                                                                                                                                                                                                                                                                                                                                                                                                                                                                                                                                                                                                                                                                                                                                                                                                                                                                                                                                                                                                                                                                              
E|-------------------------|-----------------------|
B|-------------------------|-----------------------|
G|-------------------------|-----------------------|
D|-----------3--------3----|---------5-------------|
A|-------------------------|-----------------------|
E|--1--1--1-----1--1-------|3--3--3--------3--5--4-|

    
                                                                                                                                                                                                                                                                                                                                                                                                                                                                                                                                                                                                                                                                                                                                                                                                                                                                                                                                                                                                                                                                                                                                                                                              
E|-------------------------|-----------------------|
B|-------------------------|-----------------------|
G|-------------------------|-----------------------|
D|--------------------9----|7-----9-----5-----7----|
A|--------------------7----|5-----7-----3-----5----|
E|--3--2--0--0--0--0-------|-----------------------|

    
                                                                                                                                                                                                                                                                                                                                                                                                                                                                                                                                                                                                 
E|-------------------------|
B|-------------------------|
G|-------------------------|
D|--------------------9----|
A|--2--------2--------7----|
E|--0--0--0--0--0--0-------|

    
                                                                                                                                                                                                                                                                                                                                                                                                                                                                                                                                                                                                                                                                                                                                                                                                                                                                                                                                                                                                                                                                                                                                                                                              
E|-------------------------|-----------------------|
B|-------------------------|-----------------------|
G|-------------------------|-----------------------|
D|--5-----7-----4-----5----|------------------9----|
A|--3-----5-----2-----3----|2--------2--------7----|
E|-------------------------|0--0--0--0--0--0-------|

    
                                                                                                                                                                                                                                                                                                                                                                                                                                                                                                                                                                                                 
E|-------------------------|
B|-------------------------|
G|-------------------------|
D|--7-----9-----5-----7----|
A|--5-----7-----3-----5----|
E|-------------------------|

    
                                                                                                                                                                                                                                                                                                                                                                                                                                                                                                                                                                                                                                                                                                                                                                                                                                                                                                                                                                                                                                                                                                                                                                                              
E|-------------------------|-----------------------|
B|-------------------------|-----------------------|
G|-------------------------|-----------------------|
D|--------------------9----|5-----7-----4-----5----|
A|--2--------2--------7----|3-----5-----2-----3----|
E|--0--0--0--0--0--0-------|-----------------------|

    
                                                                                                                                                                                                                                                                                                                                                                                                                                                                                                                                                                                                                                                                                                                                                                                                                                                                                                                                                                                                                                                                                                                                                                                              
E|-------------------------------|-----------------------------|
B|-------------------------------|-----------------------------|
G|-------------------------------|-----------------------------|
D|--------------4----------------|------------5----------------|
A|--------------2----------------|------------3----------------|
E|--0--0-----0-------------------|0--0-----0-------------------|

    
                                                                                                                                                                                                                                                                                                                                                                                                                                                                                                                                                                                                                                                                                                                                                                                                                                                                                                                                                                                                                                                                                                                                                                                              
E|-------------------------------|-----------------------|
B|-------------------------------|-----------------------|
G|-------------------------------|-----------------------|
D|--------------7----------------|10----9-----7----------|
A|--------------5----------------|8-----7-----5----------|
E|--0--0-----0-------------------|-----------------------|

    
                                                                                                                                                                                                                                                                                                                                                                                                                                                                                                                                                                                                                                                                                                                                                                                                                                                                                                                                                                                                                                                                                                                                                                                              
E|-------------------------------|-----------------------------|
B|-------------------------------|-----------------------------|
G|-------------------------------|-----------------------------|
D|--------------4----------------|------------5----------------|
A|--------------2----------------|------------3----------------|
E|--0--0-----0-------------------|0--0-----0-------------------|

    
                                                                                                                                                                                                                                                                                                                                                                                                                                                                                                                                                                                                                                                                                                                                                                                                                                                                                                                                                                                                                                                                                                                                                                                              
E|-------------------------------|-----------------------|
B|-------------------------------|-----------------------|
G|-------------------------------|-----------------------|
D|--------------7----------------|10----7-----9----------|
A|--------------5----------------|8-----5-----7----------|
E|--0--0-----0-------------------|-----------------------|

    
                                                                                                                                                                                                                                                                                                                                                                                                                                                                                                                                                                                                                                                                                                                                                                                                                                                                                                                                                                                                                                                                                                                                                                                              
E|-------------------------|-----------------------|
B|-------------------------|-----------------------|
G|--2----------------------|-----------------------|
D|-------------------------|------2----------------|
A|-------------------------|-----------------------|
E|-------------------------|-----------------------|

    
                                                                                                                                                                                                                                                                                                                                                                                                                                                                                                                                                                                                 
E|-------------------------|
B|--------7----------------|
G|-------------------------|
D|-------------------------|
A|-------------------------|
E|-------------------------|

    
                                                                                                                                                                                                                                                                                                                                                                                                                                                                                                                                                                                                                                                                                                                                                                                                                                                                                                                                                                                                                                                                                                                                                                                              
E|-------------------------|-------8p10----8--7-------------|
B|--5----------------------|------------------------10p-----|
G|-------------------------|--------------------------------|
D|-------------------------|--------------------------------|
A|-------------------------|--------------------------------|
E|-------------------------|--------------------------------|

    
                                                                                                                                                                                                                                                                                                                                                                                                                                                                                                                                                                                                                                                                                                                                                                                                                                                                                                                                                                                                                                                                                                                                                                                              
E|----------------------------------|-----------------------|
B|--8--7-----8--7--10----7--8-------|---7-------------------|
G|----------------------------------|9-----8--9-----8-------|
D|----------------------------------|------------10---------|
A|----------------------------------|-----------------------|
E|----------------------------------|-----------------------|

    
                                                                                                                                                                                                                                                                                                                                                                                                                                                                                                                                                                                                                                                                                                                                                                                                                                                                                                                                                                                                                                                                                                                                                                                              
E|-------------------------|-----------------------|
B|-------------------------|-----------------------|
G|-------------------------|-----------------------|
D|--9--10-7--9-----7-------|-----------------------|
A|--------------10---------|9--10-7--9--6--7-------|
E|-------------------------|-----------------------|

About Powerman 5000 : Powerman 5000 formed in 1991 . Frontman Spider One is the younger brother of fellow metal musician Rob Zombie . The group has released nine albums, including Tonight the Stars Revolt! . Spider One dropped out of art school and recorded twelve-inch single Much Evil with producer Lamar Lowder . Powerman 5000 was born in 1991 . In 1996, the band signed to DreamWorks Records and released a remastered edition of The Blood-Splat Rating System titled Mega!! Kung Fu Radio . In late 1998, guitarist M.33 (Mike Tempesta) joined the band as they got their biggest break . Powerman 5000's most popular songs include When Worlds Collide,Nobody's Real. Powerman 5000 The group has many notable artists like Rob Zombie. Their music is influenced by genres - industrial metal industrial rock electronic rock hard rock alternative metal nu metal.

tabs and chords, guitar tabs, music transcription, music technology, deep learning, music information retrieval, transcribe into tabs & chords, chordify, music renditions, songsterr, reverbnation, tabulature, bollywood chords, ultimate guitar, yousician, guitar lessons, acoustic guitar, electric guitar, guitar tuner, 911 tabs