???? - ???? - Guitar Tabs

Steel Guitar
    
                                                                                                                                                                                                                                                                                                                                                                                                                                                                                                                                                                                                                                                                                                                                                                                                                                                                                                                                                                                                                                                                                                                                                                                              
E|-----------------0-------|---------0-------------|
B|-------------------------|-----------------------|
G|--------------------2--0-|---------------2-------|
D|-------------------------|-----------------------|
A|-------------------------|3----------------------|
E|-------------------------|-----------------------|

    
                                                                                                                                                                                                                                                                                                                                                                                                                                                                                                                                                                                                                                                                                                                                                                                                                                                                                                                                                                                                                                                                                                                                                                                              
E|-----------0-------------|---------0-------------|
B|-----------------3-------|-----------------------|
G|--0-----------2----------|---------------2-------|
D|-------------------------|0----------------------|
A|--2----------------------|-----------------------|
E|-------------------------|-----------------------|

    
                                                                                                                                                                                                                                                                                                                                                                                                                                                                                                                                                                                                                                                                                                                                                                                                                                                                                                                                                                                                                                                                                                                                                                                              
E|-------------------------|-----------------------------|
B|--3----------------------|-----------------------------|
G|--1----------------------|------0--0-----0--------0--2-|
D|--3----------------------|---2--------2--------2-------|
A|-------------------------|3-----------------3----------|
E|-------------------------|-----------------------------|

    
                                                                                                                                                                                                                                                                                                                                                                                                                                                                                                                                                                                                                                                                                                                                                                                                                                                                                                                                                                                                                                                                                                                                                                                              
E|----------------------------|-----------------------------|
B|--0-------------------------|-----------------------------|
G|-----0--0-------------------|------0--0-----0--------0--2-|
D|--------------2--2----------|---2--------2--------2-------|
A|--2-------------------------|3-----------------3----------|
E|----------------------------|-----------------------------|

    
                                                                                                                                                                                                                                                                                                                                                                                                                                                                                                                                                                                                                                                                                                                                                                                                                                                                                                                                                                                                                                                                                                                                                                                              
E|-------------------------------|-----------------------------|
B|--0--------------0-----------3-|1--------------1-------------|
G|-----0--0-----------------0----|---2--2-----0-----2--------2-|
D|--------------2----------------|3----------------------------|
A|-------------------------------|-----------------------------|
E|--0----------------------------|-----------------------------|

    
                                                                                                                                                                                                                                                                                                                                                                                                                                                                                                                                                                                                                                                                                                                                                                                                                                                                                                                                                                                                                                                                                                                                                                                              
E|-------------------------------|--------------------------|
B|--1-----1--3-----------------3-|1-----1-----1-------------|
G|-----2--------------------0----|---2-----2--------2-------|
D|-----------------2-------------|0-------------------------|
A|--0----------------------------|--------------------------|
E|-------------------------------|--------------------------|

    
                                                                                                                                                                                                                                                                                                                                                                                                                                                                                                                                                                                                                                                                                                                                                                                                                                                                                                                                                                                                                                                                                                                                                                                              
E|-------------------------|--------------------------------|
B|-------------------------|--------------------------------|
G|--1-----0----------------|------0--0-----0--------0--0--2-|
D|-------------------------|---2--------2--------2----------|
A|-------------------------|3-----------------3-------------|
E|--1-----3----------------|--------------------------------|

    
                                                                                                                                                                                                                                                                                                                                                                                                                                                                                                                                                                                                                                                                                                                                                                                                                                                                                                                                                                                                                                                                                                                                                                                              
E|----------------------------|--------------------------------|
B|--0-------------------------|------------------------------3-|
G|-----0--0-------------------|------0--0-----0--------0--0----|
D|--------------2--2----------|---2--------2--------2----------|
A|--2-------------------------|3-----------------3-------------|
E|----------------------------|--------------------------------|

    
                                                                                                                                                                                                                                                                                                                                                                                                                                                                                                                                                                                                                                                                                                                                                                                                                                                                                                                                                                                                                                                                                                                                                                                              
E|-------------------------------|-----------------------------|
B|--0--------------0-----------3-|1-----------1----------------|
G|-----0--0-----------------0----|---2--2--0--------2--------2-|
D|--------------2----------------|3----------------------------|
A|-------------------------------|-----------------------------|
E|--0----------------------------|-----------------------------|

    
                                                                                                                                                                                                                                                                                                                                                                                                                                                                                                                                                                                                                                                                                                                                                                                                                                                                                                                                                                                                                                                                                                                                                                                              
E|-------------------------------|--------------------------|
B|--1-----1--3-----------------3-|1-----1-----1--------1--3-|
G|-----2--------------------0----|---2-----2--------2-------|
D|-----------------2-------------|0-------------------------|
A|--0----------------------------|--------------------------|
E|-------------------------------|--------------------------|

    
                                                                                                                                                                                                                                                                                                                                                                                                                                                                                                                                                                                                                                                                                                                                                                                                                                                                                                                                                                                                                                                                                                                                                                                              
E|--0--------------------0--1--0-|---------------------3--0-----0-|
B|--------1--1--3--1--3----------|---1--3--3--1-----1--------3----|
G|--------1----------------------|--------------------------------|
D|-------------------------------|--------------------------------|
A|-------------------------------|3--------------------3----------|
E|--1-----------3----------------|--------------------------------|

    
                                                                                                                                                                                                                                                                                                                                                                                                                                                                                                                                                                                                                                                                                                                                                                                                                                                                                                                                                                                                                                                                                                                                                                                              
E|-----------------------3--0-------|---------------------3--0-----0-|
B|-----1--3--3--1-----1--------3--1-|---1--3--3--1-----1-------------|
G|----------------------------------|---------------------------1----|
D|----------------------------------|--------------------------------|
A|--2--------------------2----------|1--------------------1----------|
E|----------------------------------|--------------------------------|

    
                                                                                                                                                                                                                                                                                                                                                                                                                                                                                                                                                                                                                                                                                                                                                                                                                                                                                                                                                                                                                                                                                                                                                                                              
E|--------------0-------------------|---------------0-------------|
B|--3--2--3--------2----------------|---------1-----------3--3--1-|
G|--------------------2--0--2-----0-|------2-----2----------------|
D|----------------------------------|3----------------------------|
A|-----------------0----------------|-----------------------------|
E|--3-------------------------------|1----------------------------|

    
                                                                                                                                                                                                                                                                                                                                                                                                                                                                                                                                                                                                                                                                                                                                                                                                                                                                                                                                                                                                                                                                                                                                                                                              
E|-------------------------------|------------------------------------0----|
B|-----------1-----4-----3--1--3-|---0-----0--1--3--1-----------1--3-----3-|
G|--------1-----1----------------|------0--------------------2-------------|
D|-------------------------------|-----------------------------------------|
A|-------------------------------|---------------------0-------------------|
E|--1----------------------------|0----------------------------------------|

    
                                                                                                                                                                                                                                                                                                                                                                                                                                                                                                                                                                                                                                                                                                                                                                                                                                                                                                                                                                                                                                                                                                                                                                                              
E|-----------------0--------0-------|---------------0-------|
B|-----------1--3-----3-------------|-----------------------|
G|--------2--------------------2--0-|------0-----------2--0-|
D|--0-------------------------------|---2-----2-------------|
A|----------------------------------|3-----------3----------|
E|-----------------------3----------|-----------------------|

    
                                                                                                                                                                                                                                                                                                                                                                                                                                                                                                                                                                                                                                                                                                                                                                                                                                                                                                                                                                                                                                                                                                                                                                                              
E|-----------------0-------|---------1-------------|
B|-----------------------3-|------1----------------|
G|--------0-----------2----|---1-------------------|
D|-----0-----0-------------|3----------------------|
A|--2-----------2----------|-----------------------|
E|-------------------------|-----------------------|

    
                                                                                                                                                                                                                                                                                                                                                                                                                                                                                                                                                                                                 
E|-------------------------|
B|--1----------------------|
G|--0----------------------|
D|--2----------------------|
A|--3----------------------|
E|-------------------------|
tabs and chords, guitar tabs, music transcription, music technology, deep learning, music information retrieval, transcribe into tabs & chords, chordify, music renditions, songsterr, reverbnation, tabulature, bollywood chords, ultimate guitar, yousician, guitar lessons, acoustic guitar, electric guitar, guitar tuner, 911 tabs