Guitar Tabs for Shlomo Arzi Moon

(/) Slide Up  (\) Slide Down  (h) Hammer On  (p) Pull Off  (b) Bend (r) Release (v) Vibrato (x) Muted

Tabs for Song : ??? ???? ????
capo = 1
BPM : 200

intro X2
F|--------------------=---------------------------------------
C|------0h-1p0---------------0h1------------0h-1p0-----------
G|------0h-2p0-----2---0h2---0h2------------0h-2p0-----2-----
D|-----------------4---0h4-----------------------------4--2--
A|--------------------------------------------------------3--
F|--0-----------------------------------0--------------------
1) repeat this
F|-----------0-----------0-----------2-----------2-----------------------0-----------0-----------0--
C|--------1-----------1-----------0-----------0-----------0--------3--------------0-----------0-----
G|-----0-----------0-----------2-----------2-----------0--------2--------------0-----------0--------
D|--------------2-----------1-----------1--------------------4--------------------------2-----------
A|--0-----------------------------------------------------------------------------------------------
F|--------------------------------------------------0-----------------------0-----------------------
2)end of house
F|-----------0-----------------------------------------------------------------3-----------3--3--------------------
C|--------1-----------1--------------0-----1--0--------0--1-----0-----------3-----------3-----------3-----0--------
G|-----0-----------0-----0--2-----------2--------0-----------0-----0-----0-----------0--------------------------2--
D|-----------------------------0--------------------0-----2-----0-----------------------------------------------1--
A|--0-----------------------------------------------------------------------------2-----------------2-----3--------
F|--------------3-----------2-----2-----------3-----------------------3-----------------------3--------------------


F|--------------------0--
C|--------0--------3-----
G|-----0--------2--------
D|-----------4-----------
A|-----------------------
F|--0--------------------
"there was an era when the happines came in anger...."
"we have nothing but to hug the dispair"-the same
F|-----------0-----------0-----------------------------------------------------------
C|--------1-----------1-----------1--------------0-----1--0--------------0-----1--0--
G|-----0-----------0-----------0-----0--2-----------2-----------2-----------2--------
D|--------------1--------------------------0-----------------------0-----------------
A|--0--------------------------------------------------------------------------------
F|--------------------------3-----------2-----2-----------------2-----2--------------

chorse
F|-----------3-----------3-----------2-----------2-----------2-----------2-----------0-----------0-----------0--
C|--------0-----------0-----------0-----------0-----------0-----------0-----------0-----------0-----------1-----
G|-----2-----------2-----------2-----------2-----------0-----------0-----------0-----------0-----------2--------
D|--------------------------------------------------------------------------------------------------------------
A|--0-----------0-----------0-----------0-----------------------------------------------------------------------
F|--------------------------------------------------3-----------3-----------3-----------3-----------2-----------

F|-----------0-----------0-----------0-----------0-----------0-----------0-----------0--
C|--------1-----------4-----------4-----------4-----------4-----------0-----------0-----
G|-----2-----------4-----------4-----------4-----------4-----------0-----------0--------
D|--------------------------------------------------------------------------------------
A|--------------------------------------------------------------------------------------
F|--2-----------2-----------2-----------0-----------0-----------0-----------0-----------

F|--
C|--
G|--
D|--
A|--
F|--






Use manual mode to free up cursor. Paste any tab in acousterr tab maker and we'll play it !!!
tabs and chords, guitar tabs, music transcription, music technology, deep learning, music information retrieval, transcribe into tabs & chords, chordify, music renditions, songsterr, reverbnation, tabulature, bollywood chords, ultimate guitar, yousician, guitar lessons, acoustic guitar, electric guitar, guitar tuner, 911 tabs