Guitar Tabs for Xasthur - The Awakening To The Uknnown Perception Of Evil

(/) Slide Up  (\) Slide Down  (h) Hammer On  (p) Pull Off  (b) Bend (r) Release (v) Vibrato (x) Muted

Tabs for Song : 
BPM : 200

Both Guitar play several times
D|--------------------------------------------------------------------------------------------------
A|--------------------------------------------------------------0-----------------0-----------0-----
F|--------------0-----------------0-----------0-----------5--------5-----5-----5-----5-----5-----5--
C|-----6-----6-----6-----6-----6-----6-----6-----6-----5-----5--------5-----------------------------
G|--8-----8-----------8-----7-----------4-----------3-----------------------------------------------
D|--------------------------------------------------------------------------4-----------3-----------

Guitar 1 played Twice
D|--------------------------------------------------------------------------------------------------
A|--------------------------------------------------------------------------------------------------
F|--------------------------------------------------------------------------------------------------
C|--------5-----4-----5-----------6-----5-----6-----------5-----4-----5-----------4-----3-----4-----
G|-----7-----------------------8-----------------------7-----------------------6--------------------
D|--7--------7-----7-----7--8--------8-----8-----8--7--------7-----7-----7--6--------6-----6-----6--

Guitar2 Played Twice
D|--------------------------------------------------------------------------------
A|--------------------------------------------------------------------------------
F|--5-----------------------6-----------------------5-----------------------3-----
C|--7-----------------------8-----------------------7-----------------------5-----
G|--7-----------------------8-----------------------7-----------------------5-----
D|--------------------------------------------------------------------------------


Guitar One Played Twice 
D|--------------------------------------------------------------------------------------------------
A|--------------------------------------------------------------------------------------------------
F|--------------------------------------------------------------------------------------------------
C|--------5-----4-----5-----------6-----5-----6-----------5-----4-----5-----------3-----2-----3-----
G|-----7-----------------------8-----------------------7-----------------------5--------------------
D|--7--------7-----7-----7--8--------8-----8-----8--7--------7-----7-----7--5--------5-----5-----5--


Guitar2 Played Twice
D|--------------------------------------------------------------------------------
A|--------------------------------------------------------------------------------
F|--5-----------------------6-----------------------5-----------------------3-----
C|--7-----------------------8-----------------------7-----------------------5-----
G|--7-----------------------8-----------------------7-----------------------5-----
D|--------------------------------------------------------------------------------


Both Guitar play several times
D|--------------------------------------------------------------------------------------------------
A|--------------------------------------------------------------0-----------------0-----------0-----
F|--------------0-----------------0-----------0-----------5--------5-----5-----5-----5-----5-----5--
C|-----6-----6-----6-----6-----6-----6-----6-----6-----5-----5--------5-----------------------------
G|--8-----8-----------8-----7-----------4-----------3-----------------------------------------------
D|--------------------------------------------------------------------------4-----------3-----------
tabs and chords, guitar tabs, music transcription, music technology, deep learning, music information retrieval, transcribe into tabs & chords, chordify, music renditions, songsterr, reverbnation, tabulature, bollywood chords, ultimate guitar, yousician, guitar lessons, acoustic guitar, electric guitar, guitar tuner, 911 tabs