Pink Floyd - Wish You Were Here - Guitar Tabs

(/) Slide Up  (\) Slide Down  (h) Hammer On  (p) Pull Off  (b) Bend (r) Release (v) Vibrato (x) Muted

Tabs for Song : Wish you were here 
BPM : 200

Solo Section
E|------------------------------------------------------------3/5--3----------------------------
B|--------3-----5--3-----3------------------------------------3/5--3---3/5------3/--0-5/3--0----
G|---2/4--------------4--------4--2--0---------------------------------2/4------2/--0-4/2--0----
D|--------------------------------------0-----------0-------------------------------------------
A|--------------------------------------------0--2----------------------------------------------
E|----------------------------------------------------------------------------------------------

E|------------------------------------------------------------------------------------------------------------
B|----------3-----5-----7b5--3-----------------3--5-----------------3-----5------7b5--3-----------------------
G|-----2/4-----4----------------4--2------2/4--------4--2------2/4-----4-----------------4--2------4b6--4--2--
D|------------------------------------------------------------------------------------------------------------
A|------------------------------------------------------------------------------------------------------------
E|------------------------------------------------------------------------------------------------------------

Rhythm Section
Part One: Based around the Em7, Gmaj and Asus7 chords. Play this part twice:
E|-----------------3--------------------3--
B|-----------------3--------------------3--
G|-----------------0--------0-----------0--
D|--------0--------2-----2-----2--------0--
A|---0h2-----------2--------------------2--
E|-----------0-----0--------------3-----3--

Part Two: Then play this part twice
E|-----------------3--------------------3--
B|-----------------3--------------------3--
G|-----------------0--------------------2--
D|--------0--------2-----2--0-----------2--
A|---0h2-----------2-----------2-----0--0--
E|-----------0-----0-----------------------

Part Three: End by playing this part, then repeat from part one
E|-----------------3--
B|-----------------3--
G|-----------------0--
D|-----------------0--
A|--0--2--0--------2--
E|-----------3-----3--

Use manual mode to free up cursor. Paste any tab in acousterr tab maker and we'll play it !!!

About Wish You Were Here (Pink Floyd song) : David Gilmour and Roger Waters collaborated to write the music . It was released as the title track of their 1975 album Wish You Were Here . In 2011, the song was ranked No. 324 on Rolling Stone's 500 Greatest Songs of All Time. The song segues from "Have a Cigar" as if a radio had been tuned away from one station . The radio was recorded from Gilmour's car radio . It was released in 1975. It was released as part of album Wish You Were Here. The genre is progressive rock. The track was release in 1975. It is related to the album(s) - Wish You Were Here. The track has an affiliation to the band(s) - Pink Floyd.

About David Gilmour - David Jon Gilmour was guitarist and co-lead vocalist in 1968 . Pink Floyd achieved international success with The Dark Side of the Moon (1973), Wish You Were Here) David Gilmour was inducted into the US Rock and Roll Hall of Fame in 1996 . He has released four solo albums, including About Face, On an Island, and Rattle That Lock . He is also credited for bringing singer-songwriter Kate Bush to public attention . Gilmour has taken part in projects related to issues including animal rights, environmentalism, homelessness, poverty, and human rights . David Gilmour's most popular songs include - The Wall. David Gilmour had an affiliation to band(s) - Pink Floyd. David Gilmour's music is influenced by genre(s) - progressive rock psychedelic rock art rock ambient blues rock.

About Wish You Were Here (Pink Floyd album) : Wish You Were Here is the ninth studio album by the English rock band Pink Floyd . The album was recorded over numerous sessions throughout 1975 at Abbey Road Studios in London . Pink Floyd used studio effects and synthesisers . Guest singers included Roy Harper, Venetta Fields, who added backing vocals to "Shine On You Crazy Diamond" It has been hailed as one of the greatest albums of all time . It reached number one in the US and UK . It was cited by David Gilmour as their favourite album . It had an affiliation to bands - Wish You Were Here,Pink Floyd. Its music is influenced by genres - progressive rock art rock experimental rock.

tabs and chords, guitar tabs, music transcription, music technology, deep learning, music information retrieval, transcribe into tabs & chords, chordify, music renditions, songsterr, reverbnation, tabulature, bollywood chords, ultimate guitar, yousician, guitar lessons, acoustic guitar, electric guitar, guitar tuner, 911 tabs