Guitar Tabs for Nin - The Frail

This is a very lovely slow song from one of my favorite bands. It is tricky in rhythm but simple in its melody.
Play along as you hear it from the original. A few notes added for flair.

BPM : 56

E|-----------------------------------------------------------------------------------------------------10-------
B|--8--------------------------------------------------------------------------8-----------------8--------------
G|--------------------5--------------------------------------------------------------------7--------------------
D|-----------------------------------8--------------8--------5--------------------------------------------------
A|--5-----------------6--------------8-----------------------------------------5-----------------------6--------
E|-----------------------------------------------------------3--------------------------------------------------

E|--------------------------------------------------------------------------------------------------------------
B|--------6--------------------------------------------5-----------------5-----6-----------6--------------------
G|-----------------------5-----------4-----------------------------------------------------------------5--------
D|--------------------------------------------------------------------------------------------------------------
A|--------8--------------------------------------------5-----------5-----------6-----------------------6--------
E|-----------------------------------3--------------------------------------------------------------------------

E|--------------------------------------------------------------------------------------------------------------
B|--------------------------------------8-----------------------------------------------------------------------
G|-----5-----------4--------------------------------------5-----------------------------------------------------
D|--------------------------------------------------------------------5-----8-----------7-----------5-----------
A|-----6--------------------------------5-----------------6-----------------8-----------------------------------
E|-----------------3--------------------------------------------------------------------------------3-----------

E|--------------------------------------------------------------------------------------------------------------
B|--------5-----------------5-----6-----------------------------------------------------------6-----6-----------
G|--------------0-----5-----------------5-----0-----------------5-----------7--8--7-----------------------------
D|--------------------------------------------------8-----------------------5-----------------------------------
A|--------5-----------------------6-----------------8-----------------------------------------------5-----------
E|--------------------------------------------------------------------------------------------------------------

E|--------------------------5-----------6--------------------------------------------------10----10----10-------
B|--8--------------------------------------------------------8-----8-----8-----8-----8-----------------------6--
G|--------5-----------------------------------7-----------------------------------------------------------------
D|--------------------------5-----------------5-----------------------------------------------------------------
A|--------6--------------------------------------------------------5-----------------------6-----------------8--
E|--------------------------------------------------------------------------------------------------------------

E|--------------------------------------------------------------------------------------------------------------
B|-----------------------6--------------------5-----------------5-----6-----------------------------------------
G|-----------5-----------4--------------------------0-----5-----------------5-----0-----------------------------
D|--------------------------------------------------------------------------------------8-----------7-----------
A|--------------------------------------------5-----------------------6-----------------8-----------------------
E|-----------------------3--------------------------------------------------------------------------------------

E|--------------------------------------------------------------------------------------------------------------
B|--------------------------------------------------------------------------------------------------------------
G|--------------------------------------------------------------------------------------------------------------
D|--5-----------------------------------------------------------------------------------------5-----------------
A|--------------------------------------5-----------------6--------------8--------------------------------------
E|--3-----------------------------------------------------------------------------------------------------------

E|--------------------------------------------------------------------------------------------------------------
B|--------------------------------------------------------------------------------------------------------------
G|--------------------------------------------------------------------------------------------------------------
D|-----------------------------------------------------------5--------------------7-----------------8-----------
A|-----5-----------------6--------------8-----------------------------------------5-----------------6-----------
E|--------------------------------------------------------------------------------------------------------------

E|-----------------------------------------------------------------------------------------------------3--------
B|-----------------------------------------------------------------------------------------------------3--------
G|-----5--------------------7-----------------------------------------------------5--------------------3--------
D|--------------------------5--------------------7-----------------8-----------------------------------5--------
A|-----8-----------------------------------------5-----------------6--------------8--------------------5--------
E|-----------------------------------------------------------------------------------------------------3--------
tabs and chords, guitar tabs, music transcription, music technology, deep learning, music information retrieval, transcribe into tabs & chords, chordify, music renditions, songsterr, reverbnation, tabulature, bollywood chords, ultimate guitar, yousician, guitar lessons, acoustic guitar, electric guitar, guitar tuner, 911 tabs