Top Gun Theme - Guitar Tabs

(/) Slide Up  (\) Slide Down  (h) Hammer On  (p) Pull Off  (b) Bend (r) Release (v) Vibrato (x) Muted

Tabs for Song : Top Gun Theme
BPM : 200

Song lyrics here 
E|--------------------------------------------------------------------------------------
B|--------------------------------------------------------------------------------------
G|--------10/12-12v---10p9--10-9--------------------9--------9--10----9-----9-----------
D|--10----------------------------10/12-12----10-12-------12-------------10----12-12----
A|--------------------------------------------------------------------------------------
E|--------------------------------------------------------------------------------------

E|-----------------------------------------------------------------------------
B|-----------------------------------------------------------------------------
G|--------10/12-12v---10p9--10-9--------------------9--------9--10----9-----12-
D|--10----------------------------10/12-12----10-12-------12-------------10----
A|-----------------------------------------------------------------------------
E|-----------------------------------------------------------------------------

E|-----------------------------------------------------------------------------
B|--------12/14-14v---12p11-12-11----------------11-------11-12----11----11----
G|--11----------------------------13-13v---11-13-------13-------------11----13v
D|-----------------------------------------------------------------------------
A|-----------------------------------------------------------------------------
E|-----------------------------------------------------------------------------

E|--------------------------------------------------------------------
B|--------12/14-14v---12p11-12-11----------------11----11-12-11----14v
G|--11----------------------------13-13----11-13----13----------11----
D|--------------------------------------------------------------------
A|--------------------------------------------------------------------
E|--------------------------------------------------------------------

Use manual mode to free up cursor. Paste any tab in acousterr tab maker and we'll play it !!!

About Harold Faltermeyer - Hans Hugo Harold Faltermeier (born 5 October 1952) is a German musician, composer Faltermeyer composed the "Axel F" theme for the feature film Beverly Hills Cop . He also composed the music for Chevy Chase Fletch feature films . Faltermeyer has worked with Donna Summer, Amanda Lear, Patti LaBelle, Barbra Streisand, Glenn Frey, Blondie, Laura Branigan, La Toya Jackson . Harold Faltermeyer's music is influenced by genre(s) - film score.

tabs and chords, guitar tabs, music transcription, music technology, deep learning, music information retrieval, transcribe into tabs & chords, chordify, music renditions, songsterr, reverbnation, tabulature, bollywood chords, ultimate guitar, yousician, guitar lessons, acoustic guitar, electric guitar, guitar tuner, 911 tabs