Fake Smile - Bass Tabs

(/) Slide Up  (\) Slide Down  (h) Hammer On  (p) Pull Off  (b) Bend (r) Release (v) Vibrato (x) Muted

BPM : 350


Verse
G|-----------------------------------------------------------------------------------
D|-----------------------------------------------------------------------------------
A|-----------------------------5--------------------5--7--7--7--7--7--7--7--7--7--7--
E|--7--7--7--7--7--7--7--7--7-----5--5--5--5--5--5-----------------------------------


G|-----------------------------------------------------------------------------------
D|-----------------------------------------------------------------------------------
A|-----------------------------5--------------------5--7--7--7--7--7--7--7--7--7--7--
E|--7--7--7--7--7--7--7--7--7-----5--5--5--5--5--5-----------------------------------


G|-----------------------------------------------------------------------------------
D|-----------------------------------------------------------------------------------
A|-----------------------------5--------------------5--7--7--7--7--7--7--7--7--7--7--
E|--7--7--7--7--7--7--7--7--7-----5--5--5--5--5--5-----------------------------------



Chorus 

No one knows I tried to kill myself last night
G|-----------------------------------------------------------------
D|-----------------------------------------------------------------
A|--3--3--3--3--3--3--3-----------------------7--7--7--7--7--7--7--
E|-----------------------5--5--5--5--5--5--5-----------------------

Gotta go to work, pretend that everythings alright
G|-----------------------------------------------------------------
D|-----------------------------------------------------------------
A|--------------------------------------------7--7--7--7--7--7--7--
E|--3--3--3--3--3--3--3--5--5--5--5--5--5--5-----------------------

No one knows the hell that I'm going through
G|-----------------------------------------------------------------
D|-----------------------------------------------------------------
A|--3--3--3--3--3--3--3-----------------------7--7--7--7--7--7--7--
E|-----------------------5--5--5--5--5--5--5-----------------------

I fake a smile, thats all I can fucking do
G|-----------------------------------------------------------------
D|-----------------------------------------------------------------
A|--------------------------------------------7--7--7--7--7--7--7--
E|--3--3--3--3--3--3--3--5--5--5--5--5--5--5-----------------------



Verse

G|--------------------------------------------------------------------------------
D|--------------------------------------------------------------------------------
A|-----------------------------5--------------------5--7--7--7--7--7--7--7--7--7--
E|--7--7--7--7--7--7--7--7--7-----5--5--5--5--5--5--------------------------------


G|-----------------------------------------------------------------------------------
D|-----------------------------------------------------------------------------------
A|-----------------------------5--------------------5--7--7--7--7--7--7--7--7--7--7--
E|--7--7--7--7--7--7--7--7--7-----5--5--5--5--5--5-----------------------------------


G|-----------------------------------------------------------------------------------
D|-----------------------------------------------------------------------------------
A|-----------------------------5--------------------5--7--7--7--7--7--7--7--7--7--7--
E|--7--7--7--7--7--7--7--7--7-----5--5--5--5--5--5-----------------------------------



Chorus 

No one knows I tried to kill myself last night
G|-----------------------------------------------------------------
D|-----------------------------------------------------------------
A|--3--3--3--3--3--3--3-----------------------7--7--7--7--7--7--7--
E|-----------------------5--5--5--5--5--5--5-----------------------

Gotta go to work, pretend that everythings alright
G|-----------------------------------------------------------------
D|-----------------------------------------------------------------
A|--------------------------------------------7--7--7--7--7--7--7--
E|--3--3--3--3--3--3--3--5--5--5--5--5--5--5-----------------------

No one knows the hell that I'm going through
G|-----------------------------------------------------------------
D|-----------------------------------------------------------------
A|--3--3--3--3--3--3--3-----------------------7--7--7--7--7--7--7--
E|-----------------------5--5--5--5--5--5--5-----------------------

I fake a smile, thats all I can fucking do
G|-----------------------------------------------------------------------------------------------
D|-----------------------------------------------------------------------------------------------
A|--------------------------------------------7--7--7--7--7--7--7--7--7--7--7--5--7--5--------7--
E|--3--3--3--3--3--3--3--5--5--5--5--5--5--5--------------------------------------------7--5-----


Use manual mode to free up cursor. Paste any tab in acousterr tab maker and we'll play it !!!

About Best Fake Smile : English singer-songwriter James Bay's debut studio album Chaos and the Calm (2015) It was released in the United Kingdom on 2 March 2016 through Republic Records . A music video to accompany the release of "Best Fake Smile" was first released onto YouTube on 2 March 2016 at a total length of *sales figures based on certification alone . Shipments figures based It was released in 2016. It was released as part of album Chaos and the Calm. The genre is blues rock alternative rock. The track was release in 2016. Best Fake Smile has a significant contribution from artist(s) James Bay. It is related to the album(s) - Chaos and the Calm.

About James Bay (singer) - James Michael Bay released his debut studio album Chaos and the Calm (2015) The album went to number one in the UK and number 15 in the US . At the 2016 Brit Awards he received the award for Best British Male Solo Artist . Aged 11, Bay was inspired to play classical guitar after hearing Eric Clapton's "Layla" Bay used an old rusty guitar with five strings he found in a cupboard in his house . Bay released his debut extended play, The Dark of the Morning, on 18 July 2013 . His second EP, Let It Go, was released on 12 May 2014 . Lead single, titled "Let It Go", peaked at number 10 in the UK charts . Bay toured with Hozier in 2014 . James Bay (singer)'s most popular songs include - Hold Back the River. The most notable albums include - Chaos and the Calm. James Bay (singer)'s music is influenced by genre(s) - rock pop soul americana.

About Chaos and the Calm : James Bay's debut studio album is released on 23 March 2015 . It was released by Republic Records and produced by Jacquire King . The album was nominated for a Grammy Award for Best Rock Album . The song "Hold Back the River" and Bay for Best New Artist . Chaos and the Calm received mixed reviews from music critics . At Metacriticritic, which assigns a normalised rating out of 100 to reviews from mainstream critics, received an average score of 58 . It had a contribution from notable artists like James Bay. Its music is influenced by genres - americana indie rock folk rock blues soul soft rock pop rock.

tabs and chords, guitar tabs, music transcription, music technology, deep learning, music information retrieval, transcribe into tabs & chords, chordify, music renditions, songsterr, reverbnation, tabulature, bollywood chords, ultimate guitar, yousician, guitar lessons, acoustic guitar, electric guitar, guitar tuner, 911 tabs