Guitar Tabs for Säkkijärven Polkka

Säkkijärven Polkka

A Finnish polka song famous for jamming Soviet radios during the Winter War.

This version runs through each possible portion of the song, which have been
marked accordingly. To play it similar to recorded versions, arrange the parts
as you wish.

BPM: 120

Intro:
E|--------------------------------------------------------------------------------------------------
B|--------1-----------1-----------1-----------1-----------1-----------1-----------1-----------1-----
G|--------2-----------2-----------2-----------2-----------2-----------2-----------2-----------2-----
D|--------2-----------2-----------2-----------2-----------2-----------2-----------2-----------2-----
A|--0-----------------------------------------------0-----------------------------------------------
E|--------------------------------------0-----------------------------------------------0-----------

Verse 1 with ending 1:
E|--5-----0-----------------------------------------0-----------------------------------------------
B|--------------3-----1-----1-----0-----0-----------------3-----1-----0-----0-----------------------
G|--------------------------------------------------------------------------------2-----2-----------
D|--------2-----------2-----------------------------------------------------------2-----------2-----
A|--0-----------------------------2-----------2-----------2-----------2-----0-----------------------
E|--------------------------0-----------------------0-----------------------------------------------

E|--5-----0-----------------------------------------0-----------------------------------------------
B|--------------3-----1-----1-----0-----0--------------------3--1-----0-----------------------------
G|--------------------------------------------------------------------------2-----------1-----------
D|--------2-----------2-----------------------------------------------------2-----------2-----------
A|--0-----------------------------2-----------2-----------------------------0-----------2-----------
E|--------------------------0-----------------------0-----0-----2-----4-----------------------------

Verse 1 with ending 2:
E|--5-----0-----------------------------------------0-----------------------------------------------
B|--------------3-----1-----1-----0-----0-----------------3-----1-----0-----0-----------------------
G|--------------------------------------------------------------------------------2-----2-----------
D|--------2-----------2-----------------------------------------------------------2-----------2-----
A|--0-----------------------------2-----------2-----------2-----------2-----0-----------------------
E|--------------------------0-----------------------0-----------------------------------------------

E|--5-----0-----------------------------------------0--------0--2-----4-----5-----------5-----------
B|--------------3-----1-----1-----0-----0-----------------------------------------------5-----------
G|--------------------------------------------------------------------------------------------------
D|--------2-----------2-----------------------------2-----2-----0-----------------------------------
A|--0-----------------------------2-----------2-----------------------2-----0-----------0-----------
E|--------------------------0-----------------------------------------------------------------------

Verse 2 (same ending both times, repeated for consistent listening):
E|--------------------------------------------------------------------------------------------------
B|--------------------------------------------------------0-----0-----0--1--0-----------------------
G|--------2-----2-----2--4--2-----1-----1-----------------------------------------2-----2-----------
D|--2-----------------------------------------2-----2-----------------------------------------2-----
A|--0-----------------------0-----------------------2-----------------------2-----------------------
E|--------------0-----------------------0-----------------------0-----------------------0-----------

E|--------------------------------------------------------------------------------------------------
B|--------------------------------------------------------------------------------------------------
G|--------2-----2-----2--4--2-----1-----1-----------------------------1-----2-----------------------
D|--2-----------------------------------------2-----2--------2--4-----------------------2-----------
A|--0-----------------------0-----------------------0-----------------------0-----------------------
E|--------------0-----------------------0-----------------------0-----------------------0-----------

E|--------------------------------------------------------------------------------------------------
B|--------------------------------------------------------0-----0-----0--1--0-----------------------
G|--------2-----2-----2--4--2-----1-----1-----------------------------------------2-----2-----------
D|--2-----------------------------------------2-----2-----------------------------------------2-----
A|--0-----------------------0-----------------------2-----------------------2-----------------------
E|--------------0-----------------------0-----------------------0-----------------------0-----------

E|--------------------------------------------------------------------------------------------------
B|--------------------------------------------------------------------------------------------------
G|--------2-----2-----2--4--2-----1-----1-----------------------------1-----2-----------------------
D|--2-----------------------------------------2-----2--------2--4-----------------------2-----------
A|--0-----------------------0-----------------------0-----------------------0-----------------------
E|--------------0-----------------------0-----------------------0-----------------------0-----------

Bridge:
E|--------------------------------1-----------1-----------------------------------------------------
B|--------1-----------1-----------3-----------3-----------------------------------1-----------------
G|--------2-----------2-----------2-----------2-----------1-----------1-----------2-----------1-----
D|--------2-----------2-----0-----------------------------2-----------2-----------2-----------2-----
A|--0-----------------------------------------------------2-----------2-----0-----------------2-----
E|--------------------------------------------------0-----------------------------------0-----------

E|--------------------------------1-----------1-----------------------------------------------------
B|--------1-----------1-----------3-----------3-----------------------------------------------------
G|--------2-----------2-----------2-----------2-----------1-----------1-----2-----------------------
D|--------2-----------2-----0-----------------------------2-----------2-----2-----------------------
A|--0-----------------------------------------------------------2-----------0-----------------------
E|--------------------------------------------------0-----------------------------------0-----------

Verse 3:
E|--------0-----0-----------------0-----0-----------------0-----0-----1-----0--------0--------------
B|-----1-----------1-----------1-----------1-----------1--------------------------3-----3--1--0-----
G|--2-----------------2-----2-----------------2-----2-----------------------------------------------
D|--------------2-----------------------2-----------------------2-----------------------------------
A|--0-----------------------0-----------------------0-----------------------2-----------------------
E|--------------------------------------------------------------------------------------0-----------

E|--------------------------------------------------------------------0-----------------------------
B|--0--1--3-----3--1--0-----0--1--3-----3--1--0-----0--1--3-----3-----------3-----1--3--1--0--------
G|--------------------------------------------------------------------------------------------2-----
D|--------------------------------------------------------------------------2-----------------------
A|--------------2-----------------------2-----------------------2-----------------------0-----------
E|--0-----------------------0-----------------------0-----------------------------------------------

E|--------0-----0-----------------0-----0-----------------0-----0-----5-----3-----1--3--1--0--------
B|-----1-----------1-----------1-----------1-----------1--------------------------------------3-----
G|--2-----------------2-----2-----------------2-----2-----------------------2-----------------------
D|--------------2-----------------------2-----------------------2-----------------------0-----------
A|--0-----------------------0-----------------------0-----------------------------------------------
E|--------------------------------------------------------------------------------------------------

E|-----0--1-----1-----0-----------------------------------------------------------------------5-----
B|--3-----------------------3-----1--3--1--0-----------1--0--1--0-----------------------------5-----
G|--------------2-----------------------------2-----2--------------2--1-----2-----------------5-----
D|--0-----------------------------------2-----------------------------------------2-----------7-----
A|--------------------------0-----------------------------------2-----------0-----------0-----7-----
E|--------------------------------------------------0-----------------------------------------5-----

Solo octave A3-A4:
E|-----------------------------------0--1--0-----1--0--------0--------------------------------------
B|-----------0--1--0--1--2--3--2--3-----------3--------3--1-----3--1--0--3--1--0-----1--0--------0--
G|--2--1--2-----------------------------------------------------------------------2--------2--1-----
D|--------------------------------------------------------------------------------------------------
A|--------------------------------------------------------------------------------------------------
E|--------------------------------------------------------------------------------------------------

E|-----------------------------------0--1--0-----1--0--------0-----------------------0--5-----------
B|-----------0--1--0--1--2--3--2--3-----------3--------3--1-----3--1--0-----------1-----------------
G|--2--1--2--------------------------------------------------------------1--2-----------------------
D|--------------------------------------------------------------------------------------------------
A|--------------------------------------------------------------------------------------------------
E|--------------------------------------------------------------------------------------------------

Solo octave A4-A5:
E|--------------8-----8--9--10-9--10-12-13-12-10-13-12-10-8--12-10-8-----10-8--------8--------------
B|--10-9--10-12----12-------------------------------------------------12-------12-10----12-10-9--12-
G|--------------------------------------------------------------------------------------------------
D|--------------------------------------------------------------------------------------------------
A|--------------------------------------------------------------------------------------------------
E|--------------------------------------------------------------------------------------------------

E|--------------8-----8--9--10-9--10-12-13-12-10-13-12-10-8--12-10-8--------------8--12-17----------
B|--10-9--10-12----12-------------------------------------------------12-9--10----------------------
G|--------------------------------------------------------------------------------------------------
D|--------------------------------------------------------------------------------------------------
A|--------------------------------------------------------------------------------------------------
E|--------------------------------------------------------------------------------------------------



tabs and chords, guitar tabs, music transcription, music technology, deep learning, music information retrieval, transcribe into tabs & chords, chordify, music renditions, songsterr, reverbnation, tabulature, bollywood chords, ultimate guitar, yousician, guitar lessons, acoustic guitar, electric guitar, guitar tuner, 911 tabs