Morning - Guitar Tabs

(/) Slide Up  (\) Slide Down  (h) Hammer On  (p) Pull Off  (b) Bend (r) Release (v) Vibrato (x) Muted

Tabs for Song : 
BPM : 200

Song lyrics here 
E|--------------0--------------0---------------0h-2/-5p0--0--0--2--5--2--0--0--------------------0--
B|---------0h2------------0h2------------0h2--------------2-----------3-----0------0h2-----------0--
G|--------------------------------------------------------2-----------2-----1--2--------2--1-----1--
D|-----2--------------2--------------2--------------------2-----------0-----2-----------------2--2--
A|--0--------------0--------------0-----------------------0-----------------2--------------------2--
E|--------------------------------------------------------------------------0--------------------0--

Song lyrics here 
E|--------------------0--0--2--0---2p0-----------0--
B|--------------------2--2-----0--------2--0--2-----
G|-----------------2--2--2-----1--------------------
D|-----------2--4-----2--2-----2--------------------
A|--0--2--4-----------0--0-----2--------------------
E|-----------------------------0--------------------

Use manual mode to free up cursor. Paste any tab in acousterr tab maker and we'll play it !!!

Morning - Mandolin Tabs






E|-----------------0--------------0-----------------------------------------------------------------
A|--0-----------------0--------------2-----------------------------------------0-----------------0--
D|-----2-----------------0--------------2-----------------0--0--0--0--0--0--0-----2-----------------
G|--------------------------------------------------------------------------------------------------






Morning - Guitar Tabs






E|--0-----------2--------------0--------------2-----------0-----------2--
B|--2-----------3--------------2--------------3-----------2-----------3--
G|--2-----------2--------------2--------------2-----------2-----------2--
D|--2-----------0--------------2--------------0-----------2-----------0--
A|--0--------------------------0--------------------------0--------------
E|-----------------------------------------------------------------------

E|--
B|--
G|--
D|--
A|--
E|--


E|--
B|--
G|--
D|--
A|--
E|--

tabs and chords, guitar tabs, music transcription, music technology, deep learning, music information retrieval, transcribe into tabs & chords, chordify, music renditions, songsterr, reverbnation, tabulature, bollywood chords, ultimate guitar, yousician, guitar lessons, acoustic guitar, electric guitar, guitar tuner, 911 tabs