Guitar Tabs for Black Shroud

(/) Slide Up  (\) Slide Down  (h) Hammer On  (p) Pull Off  (b) Bend (r) Release (v) Vibrato (x) Muted

Tabs for Song : 

Song lyrics here
E|--------------------------------------------------------------------------------------------------
B|--4--4--4--4--3--3--4--3--3--3--3--3--4--4--4--0--0--0--0--0--1--1--0--1--5--5--5--5--------------
G|--5--5--5--5--5--5--5--5--5--5--5--5--6--6--6--6--2--2--2--2--2--2--2--2--7--7--7--7--6--6--7--6--
D|--------------------------5--5--5--5--6--6--6--6--2--2--2--2--2--2--2--2--7--7--7--7--4--4--4--4--
A|--------------------------------------------------------------------------------------------------
E|--------------------------------------------------------------------------------------------------

E|--------------------------------------------------------------------------------------------------
B|--4--4--4--4--3--3--4--3--3--3--3--3--4--4--4--4--------------------------------------------------
G|--5--5--5--5--5--5--5--5--5--5--5--5--6--6--6--6--5--5--5--5--6--6--5--6--6--6--7--6--3--3--4--3--
D|--------------------------5--5--5--5--6--6--6--6--7--7--7--7--7--7--7--7--8--8--8--8--5--5--5--5--
A|--------------------------------------------------7--7--7--7--7--7--7--7--8--8--8--8--5--5--5--5--
E|--------------------------------------------------------------------------------------------------

E|--------------------------------------------------------------------------------------------------
B|--4--4--4--4--3--3--4--3--3--3--3--3--4--4--4--4--------------------------------------------------
G|--5--5--5--5--5--5--5--5--5--5--5--5--6--6--6--6--3--3--3--3--4--4--3--4--4--4--5--4--0--0--1--0--
D|--------------------------5--5--5--5--6--6--6--6--5--5--5--5--5--5--5--5--6--6--6--6--2--2--2--2--
A|--------------------------------------------------5--5--5--5--5--5--5--5--6--6--6--6--2--2--2--2--
E|--------------------------------------------------------------------------------------------------

E|-----------------------------------------------------------0-----------------------
B|--0--0--0--0--0--0--0--0--0--0--0--0--0--0-----------0--2--------------------0-----
G|--0--0--0--0--0--0--0--0--0--0--0--0--0--0--------4--------------------0--2-----2--
D|--0--0--0--0--0--0--0--0--0--0--0--0--0--0-----5--------------------4-----------3--
A|--4--4--4--4--4--4--4--4--4--4--4--4--4--4-----------------------4-----------------
E|--2--2--2--2--2--2--2--2--2--2--2--2--2--2-----------------------------------------

               |          |           |

Song lyrics here
E|--
B|--
G|--
D|--
A|--
E|--

Paste any tab in acousterr's tab maker and we'll play it !!!
Now supports capo and sound effects for vibrato/pull-off/hammer/bends/mutes etc !!! Checkout help section
tabs and chords, guitar tabs, music transcription, music technology, deep learning, music information retrieval, transcribe into tabs & chords, chordify, music renditions, songsterr, reverbnation, tabulature, bollywood chords, ultimate guitar, yousician, guitar lessons, acoustic guitar, electric guitar, guitar tuner, 911 tabs