Ivy - Frank Ocean - Guitar Tabs

(/) Slide Up  (\) Slide Down  (h) Hammer On  (p) Pull Off  (b) Bend (r) Release (v) Vibrato (x) Muted


E|-----------3--------3--------------------5--------5--------------------------------10----------10-10-
B|-----------------5-----5-----------6-----------6--6--------------5-----5-----------------10-------10-
G|------3\5-----5---------------5\7-----7-----7-----7--------5--------5--5------7\10----10----------10-
D|--------------------------------------------------------7-----7--------7-----------------------------
A|-----------------------------------------------------------------------------------------------------
E|-----------------------------------------------------------------------------------------------------



E|-----3-----------3--5-----------------5--------5-----
B|-----------5--------5-----------6-----------6--6-----
G|--5-----5-----5-----5------5\7-----7-----7-----7-----
D|-----------------------------------------------------
A|-----------------------------------------------------
E|-----------------------------------------------------
tabs and chords, guitar tabs, music transcription, music technology, deep learning, music information retrieval, transcribe into tabs & chords, chordify, music renditions, songsterr, reverbnation, tabulature, bollywood chords, ultimate guitar, yousician, guitar lessons, acoustic guitar, electric guitar, guitar tuner, 911 tabs