Something About Us - Daft Punk - Guitar Tabs

(/) Slide Up  (\) Slide Down  (h) Hammer On  (p) Pull Off  (b) Bend (r) Release (v) Vibrato (x) Muted

Tabs for Song : Something About Us
BPM : 230

Guitar Solo:
E|--------------5-----------10-8-----------------5-----------------5--------------------------------------------
B|--------6--8-----------------------------6--8-----6--8--------------8--8--6--6------------8h10----------------
G|--5--7--------------------------------------------------------------------------7--5--7-----------------------
D|--------------------------------------------------------------------------------------------------------------
A|--------------------------------------------------------------------------------------------------------------
E|--------------------------------------------------------------------------------------------------------------


E|--10-12-------------12-13-12----------------------5--8--5--5-----------------------
B|-----------------------------13-10-------------6--------------6--6--------6--8--10-
G|--------------------------------------------7-----------------------5--7-----------
D|-----------------------------------------------------------------------------------
A|-----------------------------------------------------------------------------------
E|-----------------------------------------------------------------------------------

About Something About Us (Daft Punk song) : "Something About Us" was released as a promotion for their 2003 animated feature film Interstella 5555: The 5tory of the 5ecret 5tar 5ystem . The song reached 93 on the SNEP chart ranking . There are two music videos for "Something About Us" The first video is a scene from Interstella 5555 . The first was a scene of the alien band The Crescendolls . The second music video is a compilation of clips featuring Shep and Stella . This version was released to promote the single It was released in 2003. It was released as part of album Discovery. The genre is downtempo. The track was release in 2003. It is related to the album(s) - Discovery. The track has an affiliation to the band(s) - Daft Punk. Its associated with movies - Interstella 5555.

About Daft Punk : French electronic music duo formed in 1993 by Guy-Manuel de Homem-Christo and Thomas Bangalter . They have worn ornate helmets and gloves to assume robot personas in most public appearances since 1999 . Their debut studio album Homework was released by Virgin Records in 1997 . Their second album, Discovery, had further success, supported by hit singles "One More Time", "Digital Love" Daft Punk left Virgin for Columbia Records in 2013 . Lead single "Get Lucky" reached the top 10 in the charts of 32 countries . In 2016, Daft's first number one on the Billboard Hot 100 with the song "Starboy" Daft Punk The group has many notable artists like Thomas Bangalter. Their music is influenced by genres - house electronic dance disco.

About Discovery (Daft Punk album) : Discovery is the second studio album by French electronic music duo Daft Punk . The duo were Daft Punk recorded at Bangalter's home in Paris between 1998 and 2000 . Fellow electronic musicians Romanthony, Todd Edwards, and DJ Sneak collaborated on some tracks . Discovery was a critical and commercial success . The duo adopted robot costumes in the lead-up to the release . They also launched a website which featured exclusive tracks and other bonus material . Its music is influenced by genres - disco post-disco french house.

tabs and chords, guitar tabs, music transcription, music technology, deep learning, music information retrieval, transcribe into tabs & chords, chordify, music renditions, songsterr, reverbnation, tabulature, bollywood chords, ultimate guitar, yousician, guitar lessons, acoustic guitar, electric guitar, guitar tuner, 911 tabs