Idkyet - Guitar Tabs

(/) Slide Up  (\) Slide Down  (h) Hammer On  (p) Pull Off  (b) Bend (r) Release (v) Vibrato (x) Muted

Tabs for Song : 
BPM:250


Intro (chorus x3, no vocals?)

E|-----------------------------------------------------------------------------------------------
B|-----------------------------------------------------------------------------------------------
G|-----------------------------------------------------------------------------------------------
D|-----------------------------------------------------------------------------------------------
A|--3--3--3--3--3--3--3-----7-----5-----7-----5--------------------------------------------------
E|--------------------------------------------------5--5--5--5--5--5--5-----5--5--5--5--5--5--5--


E|-----------------------------------------------------------------------------------------------
B|-----------------------------------------------------------------------------------------------
G|-----------------------------------------------------------------------------------------------
D|-----------------------------------------------------------------------------------------------
A|--3--3--3--3--3--3--3-----7-----5-----7-----5--------------------------------------------------
E|--------------------------------------------------5--5--5--5--5--5--5-----5--5--5--5--5--5--5--


E|-----------------------------------------------------------------------------------------------
B|-----------------------------------------------------------------------------------------------
G|-----------------------------------------------------------------------------------------------
D|-----------------------------------------------------------------------------------------------
A|--3--3--3--3--3--3--3-----7-----5-----7-----5--------------------------------------------------
E|--------------------------------------------------5--5--5--5--5--5--5-----5--5--5--5--5--5--5--



Verse 
E|--------------------------------------------------------------------------
B|--------------------------------------------------------------------------
G|--------------------------------------------------------------------------
D|--------------------------------------------------------------------------
A|--7--7--7--7--7--7--------------------9--9--9--9--9--9--------------------
E|--------------------7--7--7--7--7--7--------------------9--9--9--9--9--9--


E|--------------------------------------------------------------------------
B|--------------------------------------------------------------------------
G|--------------------------------------------------------------------------
D|--------------------------------------------------------------------------
A|--7--7--7--7--7--7--------------------9--9--9--9--9--9--------------------
E|--------------------7--7--7--7--7--7--------------------9--9--9--9--9--9--


E|--------------------------------------------------------------------------
B|--------------------------------------------------------------------------
G|--------------------------------------------------------------------------
D|--------------------------------------------------------------------------
A|--7--7--7--7--7--7--------------------9--9--9--9--9--9--------------------
E|--------------------7--7--7--7--7--7--------------------9--9--9--9--9--9--



Chorus

E|-----------------------------------------------------------------------------------------------
B|-----------------------------------------------------------------------------------------------
G|-----------------------------------------------------------------------------------------------
D|-----------------------------------------------------------------------------------------------
A|--3--3--3--3--3--3--3-----7-----5-----7-----5--------------------------------------------------
E|--------------------------------------------------5--5--5--5--5--5--5-----5--5--5--5--5--5--5--


E|-----------------------------------------------------------------------------------------------
B|-----------------------------------------------------------------------------------------------
G|-----------------------------------------------------------------------------------------------
D|-----------------------------------------------------------------------------------------------
A|--3--3--3--3--3--3--3-----7-----5-----7-----5--------------------------------------------------
E|--------------------------------------------------5--5--5--5--5--5--5-----5--5--5--5--5--5--5--


E|-----------------------------------------------------------------------------------------------
B|-----------------------------------------------------------------------------------------------
G|-----------------------------------------------------------------------------------------------
D|-----------------------------------------------------------------------------------------------
A|--3--3--3--3--3--3--3-----7-----5-----7-----5--------------------------------------------------
E|--------------------------------------------------5--5--5--5--5--5--5-----5--5--5--5--5--5--5--



Verse 

E|--------------------------------------------------------------------------
B|--------------------------------------------------------------------------
G|--------------------------------------------------------------------------
D|--------------------------------------------------------------------------
A|--7--7--7--7--7--7--------------------9--9--9--9--9--9--------------------
E|--------------------7--7--7--7--7--7--------------------9--9--9--9--9--9--


E|--------------------------------------------------------------------------
B|--------------------------------------------------------------------------
G|--------------------------------------------------------------------------
D|--------------------------------------------------------------------------
A|--7--7--7--7--7--7--------------------9--9--9--9--9--9--------------------
E|--------------------7--7--7--7--7--7--------------------9--9--9--9--9--9--


E|--------------------------------------------------------------------------
B|--------------------------------------------------------------------------
G|--------------------------------------------------------------------------
D|--------------------------------------------------------------------------
A|--7--7--7--7--7--7--------------------9--9--9--9--9--9--------------------
E|--------------------7--7--7--7--7--7--------------------9--9--9--9--9--9--


Chorus

E|-----------------------------------------------------------------------------------------------
B|-----------------------------------------------------------------------------------------------
G|-----------------------------------------------------------------------------------------------
D|-----------------------------------------------------------------------------------------------
A|--3--3--3--3--3--3--3-----7-----5-----7-----5--------------------------------------------------
E|--------------------------------------------------5--5--5--5--5--5--5-----5--5--5--5--5--5--5--


E|-----------------------------------------------------------------------------------------------
B|-----------------------------------------------------------------------------------------------
G|-----------------------------------------------------------------------------------------------
D|-----------------------------------------------------------------------------------------------
A|--3--3--3--3--3--3--3-----7-----5-----7-----5--------------------------------------------------
E|--------------------------------------------------5--5--5--5--5--5--5-----5--5--5--5--5--5--5--


E|--------------------------------------------------------------------------------------------------
B|--------------------------------------------------------------------------------------------------
G|--------------------------------------------------------------------------------------------------
D|--------------------------------------------------------------------------------------------------
A|--3--3--3--3--3--3--3-----7-----5------7-----5--------------------------------------------------
E|-----------------------------------------------------5--5--5--5--5--5--5-----5--5--5--5--5--5--5--

tabs and chords, guitar tabs, music transcription, music technology, deep learning, music information retrieval, transcribe into tabs & chords, chordify, music renditions, songsterr, reverbnation, tabulature, bollywood chords, ultimate guitar, yousician, guitar lessons, acoustic guitar, electric guitar, guitar tuner, 911 tabs